  0
SECTION
  2
HEADER
  9
$ACADVER
  1
AC1015
  9
$ACADMAINTVER
 70
    20
  9
$DWGCODEPAGE
  3
ANSI_1252
  9
$INSBASE
 10
0.0
 20
0.0
 30
0.0
  9
$EXTMIN
 10
1631.116232900551
 20
859.1590345969288
 30
0.0
  9
$EXTMAX
 10
1634.248668280395
 20
859.6090345969289
 30
0.0
  9
$LIMMIN
 10
0.0
 20
0.0
  9
$LIMMAX
 10
420.0
 20
297.0
  9
$ORTHOMODE
 70
     1
  9
$REGENMODE
 70
     1
  9
$FILLMODE
 70
     1
  9
$QTEXTMODE
 70
     0
  9
$MIRRTEXT
 70
     1
  9
$LTSCALE
 40
1.0
  9
$ATTMODE
 70
     1
  9
$TEXTSIZE
 40
2.5
  9
$TRACEWID
 40
1.0
  9
$TEXTSTYLE
  7
SANINDUSA
  9
$CLAYER
  8
0
  9
$CELTYPE
  6
ByLayer
  9
$CECOLOR
 62
   256
  9
$CELTSCALE
 40
1.0
  9
$DISPSILH
 70
     0
  9
$DIMSCALE
 40
1.0
  9
$DIMASZ
 40
2.0
  9
$DIMEXO
 40
1.0
  9
$DIMDLI
 40
1.0
  9
$DIMRND
 40
0.0
  9
$DIMDLE
 40
0.0
  9
$DIMEXE
 40
1.0
  9
$DIMTP
 40
0.0
  9
$DIMTM
 40
0.0
  9
$DIMTXT
 40
2.0
  9
$DIMCEN
 40
0.0
  9
$DIMTSZ
 40
0.0
  9
$DIMTOL
 70
     0
  9
$DIMLIM
 70
     0
  9
$DIMTIH
 70
     0
  9
$DIMTOH
 70
     0
  9
$DIMSE1
 70
     0
  9
$DIMSE2
 70
     0
  9
$DIMTAD
 70
     1
  9
$DIMZIN
 70
     8
  9
$DIMBLK
  1

  9
$DIMASO
 70
     1
  9
$DIMSHO
 70
     1
  9
$DIMPOST
  1

  9
$DIMAPOST
  1

  9
$DIMALT
 70
     0
  9
$DIMALTD
 70
     3
  9
$DIMALTF
 40
0.03937007874016
  9
$DIMLFAC
 40
1.0
  9
$DIMTOFL
 70
     1
  9
$DIMTVP
 40
0.0
  9
$DIMTIX
 70
     0
  9
$DIMSOXD
 70
     0
  9
$DIMSAH
 70
     0
  9
$DIMBLK1
  1

  9
$DIMBLK2
  1

  9
$DIMSTYLE
  2
SANINDUSA
  9
$DIMCLRD
 70
   256
  9
$DIMCLRE
 70
   256
  9
$DIMCLRT
 70
   256
  9
$DIMTFAC
 40
1.0
  9
$DIMGAP
 40
1.0
  9
$DIMJUST
 70
     0
  9
$DIMSD1
 70
     0
  9
$DIMSD2
 70
     0
  9
$DIMTOLJ
 70
     0
  9
$DIMTZIN
 70
     8
  9
$DIMALTZ
 70
     0
  9
$DIMALTTZ
 70
     0
  9
$DIMUPT
 70
     0
  9
$DIMDEC
 70
     1
  9
$DIMTDEC
 70
     1
  9
$DIMALTU
 70
     2
  9
$DIMALTTD
 70
     3
  9
$DIMTXSTY
  7
SANINDUSA
  9
$DIMAUNIT
 70
     0
  9
$DIMADEC
 70
     1
  9
$DIMALTRND
 40
0.0
  9
$DIMAZIN
 70
     0
  9
$DIMDSEP
 70
    44
  9
$DIMATFIT
 70
     3
  9
$DIMFRAC
 70
     0
  9
$DIMLDRBLK
  1

  9
$DIMLUNIT
 70
     2
  9
$DIMLWD
 70
    -1
  9
$DIMLWE
 70
    -1
  9
$DIMTMOVE
 70
     0
  9
$LUNITS
 70
     2
  9
$LUPREC
 70
     4
  9
$SKETCHINC
 40
1.0
  9
$FILLETRAD
 40
3.0
  9
$AUNITS
 70
     0
  9
$AUPREC
 70
     0
  9
$MENU
  1
.
  9
$ELEVATION
 40
0.0
  9
$PELEVATION
 40
0.0
  9
$THICKNESS
 40
0.0
  9
$LIMCHECK
 70
     0
  9
$CHAMFERA
 40
10.0
  9
$CHAMFERB
 40
10.0
  9
$CHAMFERC
 40
20.0
  9
$CHAMFERD
 40
0.0
  9
$SKPOLY
 70
     0
  9
$TDCREATE
 40
2453913.450773831
  9
$TDUCREATE
 40
2453913.409107165
  9
$TDUPDATE
 40
2453977.663337847
  9
$TDUUPDATE
 40
2453977.621671181
  9
$TDINDWG
 40
0.0058883102
  9
$TDUSRTIMER
 40
0.0058883102
  9
$USRTIMER
 70
     1
  9
$ANGBASE
 50
0.0
  9
$ANGDIR
 70
     0
  9
$PDMODE
 70
     0
  9
$PDSIZE
 40
0.0
  9
$PLINEWID
 40
0.0
  9
$SPLFRAME
 70
     0
  9
$SPLINETYPE
 70
     6
  9
$SPLINESEGS
 70
     8
  9
$HANDSEED
  5
163D
  9
$SURFTAB1
 70
     6
  9
$SURFTAB2
 70
     6
  9
$SURFTYPE
 70
     6
  9
$SURFU
 70
     6
  9
$SURFV
 70
     6
  9
$UCSBASE
  2

  9
$UCSNAME
  2

  9
$UCSORG
 10
0.0
 20
0.0
 30
0.0
  9
$UCSXDIR
 10
1.0
 20
0.0
 30
0.0
  9
$UCSYDIR
 10
0.0
 20
1.0
 30
0.0
  9
$UCSORTHOREF
  2

  9
$UCSORTHOVIEW
 70
     0
  9
$UCSORGTOP
 10
0.0
 20
0.0
 30
0.0
  9
$UCSORGBOTTOM
 10
0.0
 20
0.0
 30
0.0
  9
$UCSORGLEFT
 10
0.0
 20
0.0
 30
0.0
  9
$UCSORGRIGHT
 10
0.0
 20
0.0
 30
0.0
  9
$UCSORGFRONT
 10
0.0
 20
0.0
 30
0.0
  9
$UCSORGBACK
 10
0.0
 20
0.0
 30
0.0
  9
$PUCSBASE
  2

  9
$PUCSNAME
  2

  9
$PUCSORG
 10
0.0
 20
0.0
 30
0.0
  9
$PUCSXDIR
 10
1.0
 20
0.0
 30
0.0
  9
$PUCSYDIR
 10
0.0
 20
1.0
 30
0.0
  9
$PUCSORTHOREF
  2

  9
$PUCSORTHOVIEW
 70
     0
  9
$PUCSORGTOP
 10
0.0
 20
0.0
 30
0.0
  9
$PUCSORGBOTTOM
 10
0.0
 20
0.0
 30
0.0
  9
$PUCSORGLEFT
 10
0.0
 20
0.0
 30
0.0
  9
$PUCSORGRIGHT
 10
0.0
 20
0.0
 30
0.0
  9
$PUCSORGFRONT
 10
0.0
 20
0.0
 30
0.0
  9
$PUCSORGBACK
 10
0.0
 20
0.0
 30
0.0
  9
$USERI1
 70
     0
  9
$USERI2
 70
     0
  9
$USERI3
 70
     0
  9
$USERI4
 70
     0
  9
$USERI5
 70
     0
  9
$USERR1
 40
0.0
  9
$USERR2
 40
0.0
  9
$USERR3
 40
0.0
  9
$USERR4
 40
0.0
  9
$USERR5
 40
0.0
  9
$WORLDVIEW
 70
     1
  9
$SHADEDGE
 70
     3
  9
$SHADEDIF
 70
    70
  9
$TILEMODE
 70
     1
  9
$MAXACTVP
 70
    64
  9
$PINSBASE
 10
0.0
 20
0.0
 30
0.0
  9
$PLIMCHECK
 70
     0
  9
$PEXTMIN
 10
1.000000000000000E+20
 20
1.000000000000000E+20
 30
1.000000000000000E+20
  9
$PEXTMAX
 10
-1.000000000000000E+20
 20
-1.000000000000000E+20
 30
-1.000000000000000E+20
  9
$PLIMMIN
 10
0.0
 20
0.0
  9
$PLIMMAX
 10
420.0
 20
297.0
  9
$UNITMODE
 70
     0
  9
$VISRETAIN
 70
     1
  9
$PLINEGEN
 70
     0
  9
$PSLTSCALE
 70
     1
  9
$TREEDEPTH
 70
  3020
  9
$CMLSTYLE
  2
Standard
  9
$CMLJUST
 70
     0
  9
$CMLSCALE
 40
20.0
  9
$PROXYGRAPHICS
 70
     1
  9
$MEASUREMENT
 70
     1
  9
$CELWEIGHT
370
    -1
  9
$ENDCAPS
280
     0
  9
$JOINSTYLE
280
     0
  9
$LWDISPLAY
290
     0
  9
$INSUNITS
 70
     6
  9
$HYPERLINKBASE
  1

  9
$STYLESHEET
  1
monochrome.ctb
  9
$XEDIT
290
     1
  9
$CEPSNTYPE
380
     0
  9
$PSTYLEMODE
290
     1
  9
$FINGERPRINTGUID
  2
{53FC761E-5E1F-4304-B138-0843DE2547CC}
  9
$VERSIONGUID
  2
{FE1EF22B-82F5-4F19-AE42-66724DE2F1F5}
  9
$EXTNAMES
290
     1
  9
$PSVPSCALE
 40
0.0
  9
$OLESTARTUP
290
     0
  0
ENDSEC
  0
SECTION
  2
CLASSES
  0
CLASS
  1
ACDBDICTIONARYWDFLT
  2
AcDbDictionaryWithDefault
  3
ObjectDBX Classes
 90
        0
280
     0
281
     0
  0
CLASS
  1
ACDBPLACEHOLDER
  2
AcDbPlaceHolder
  3
ObjectDBX Classes
 90
        0
280
     0
281
     0
  0
CLASS
  1
LAYOUT
  2
AcDbLayout
  3
ObjectDBX Classes
 90
        0
280
     0
281
     0
  0
CLASS
  1
DICTIONARYVAR
  2
AcDbDictionaryVar
  3
ObjectDBX Classes
 90
        0
280
     0
281
     0
  0
CLASS
  1
DIMASSOC
  2
AcDbDimAssoc
  3
"AcDbDimAssoc|Product Desc:     AcDim ARX App For Dimension|Company:          Autodesk, Inc.|WEB Address:      www.autodesk.com"
 90
    32768
280
     0
281
     0
  0
CLASS
  1
TABLESTYLE
  2
AcDbTableStyle
  3
ObjectDBX Classes
 90
     2047
280
     0
281
     0
  0
CLASS
  1
SORTENTSTABLE
  2
AcDbSortentsTable
  3
ObjectDBX Classes
 90
    32768
280
     0
281
     0
  0
ENDSEC
  0
SECTION
  2
TABLES
  0
TABLE
  2
VPORT
  5
8
330
0
100
AcDbSymbolTable
 70
     2
  0
VPORT
  5
1635
330
8
100
AcDbSymbolTableRecord
100
AcDbViewportTableRecord
  2
*Active
 70
     0
 10
0.0
 20
0.0
 11
1.0
 21
1.0
 12
1632.682450590473
 22
859.3840345969288
 13
0.0
 23
0.0
 14
10.0
 24
10.0
 15
10.0
 25
10.0
 16
0.0
 26
0.0
 36
1.0
 17
0.0
 27
0.0
 37
0.0
 40
1.972680877275328
 41
1.593939393939393
 42
50.0
 43
0.0
 44
0.0
 50
0.0
 51
0.0
 71
     0
 72
   100
 73
     1
 74
     2
 75
     0
 76
     0
 77
     0
 78
     0
281
     0
 65
     1
110
0.0
120
0.0
130
0.0
111
1.0
121
0.0
131
0.0
112
0.0
122
1.0
132
0.0
 79
     0
146
0.0
  0
ENDTAB
  0
TABLE
  2
LTYPE
  5
5
330
0
100
AcDbSymbolTable
 70
     3
  0
LTYPE
  5
14
330
5
100
AcDbSymbolTableRecord
100
AcDbLinetypeTableRecord
  2
ByBlock
 70
     0
  3

 72
    65
 73
     0
 40
0.0
  0
LTYPE
  5
15
330
5
100
AcDbSymbolTableRecord
100
AcDbLinetypeTableRecord
  2
ByLayer
 70
     0
  3

 72
    65
 73
     0
 40
0.0
  0
LTYPE
  5
16
330
5
100
AcDbSymbolTableRecord
100
AcDbLinetypeTableRecord
  2
Continuous
 70
     0
  3
Solid line
 72
    65
 73
     0
 40
0.0
  0
LTYPE
  5
2D
330
5
100
AcDbSymbolTableRecord
100
AcDbLinetypeTableRecord
  2
DASHDOT
 70
     0
  3
Dash dot __ . __ . __ . __ . __ . __ . __ . __
 72
    65
 73
     4
 40
25.4
 49
12.7
 74
     0
 49
-6.349999999999999
 74
     0
 49
0.0
 74
     0
 49
-6.349999999999999
 74
     0
  0
LTYPE
  5
2E
330
5
100
AcDbSymbolTableRecord
100
AcDbLinetypeTableRecord
  2
HIDDEN
 70
     0
  3
Hidden __ __ __ __ __ __ __ __ __ __ __ __ __ _
 72
    65
 73
     2
 40
9.524999999999998
 49
6.349999999999999
 74
     0
 49
-3.174999999999999
 74
     0
  0
ENDTAB
  0
TABLE
  2
LAYER
  5
2
330
0
100
AcDbSymbolTable
 70
    16
  0
LAYER
  5
10
330
2
100
AcDbSymbolTableRecord
100
AcDbLayerTableRecord
  2
0
 70
     0
 62
     7
  6
Continuous
370
    -3
390
F
  0
LAYER
  5
2F
330
2
100
AcDbSymbolTableRecord
100
AcDbLayerTableRecord
  2
1
 70
     0
 62
     1
  6
Continuous
370
    -3
390
F
  0
LAYER
  5
30
330
2
100
AcDbSymbolTableRecord
100
AcDbLayerTableRecord
  2
2
 70
     0
 62
     2
  6
Continuous
370
    -3
390
F
  0
LAYER
  5
31
330
2
100
AcDbSymbolTableRecord
100
AcDbLayerTableRecord
  2
3
 70
     0
 62
     3
  6
Continuous
370
    -3
390
F
  0
LAYER
  5
32
330
2
100
AcDbSymbolTableRecord
100
AcDbLayerTableRecord
  2
4
 70
     0
 62
     4
  6
Continuous
370
    -3
390
F
  0
LAYER
  5
33
330
2
100
AcDbSymbolTableRecord
100
AcDbLayerTableRecord
  2
5
 70
     0
 62
     5
  6
Continuous
370
    -3
390
F
  0
LAYER
  5
34
330
2
100
AcDbSymbolTableRecord
100
AcDbLayerTableRecord
  2
6
 70
     0
 62
     6
  6
Continuous
370
    -3
390
F
  0
LAYER
  5
35
330
2
100
AcDbSymbolTableRecord
100
AcDbLayerTableRecord
  2
7
 70
     0
 62
     7
  6
Continuous
370
    -3
390
F
  0
LAYER
  5
36
330
2
100
AcDbSymbolTableRecord
100
AcDbLayerTableRecord
  2
cen
 70
     0
 62
     7
  6
DASHDOT
370
    -3
390
F
  0
LAYER
  5
37
330
2
100
AcDbSymbolTableRecord
100
AcDbLayerTableRecord
  2
hid
 70
     0
 62
     7
  6
HIDDEN
370
    -3
390
F
  0
LAYER
  5
5D6
330
2
100
AcDbSymbolTableRecord
100
AcDbLayerTableRecord
  2
hatch
 70
     0
 62
     9
  6
Continuous
370
    -3
390
F
  0
LAYER
  5
8AF
330
2
100
AcDbSymbolTableRecord
100
AcDbLayerTableRecord
  2
9
 70
     0
 62
     9
  6
Continuous
370
    -3
390
F
  0
LAYER
  5
8F8
330
2
100
AcDbSymbolTableRecord
100
AcDbLayerTableRecord
  2
leg fin
 70
     0
 62
     9
  6
Continuous
370
    -3
390
F
  0
LAYER
  5
91D
330
2
100
AcDbSymbolTableRecord
100
AcDbLayerTableRecord
  2
cotas
 70
     0
 62
     1
  6
Continuous
370
    -3
390
F
  0
LAYER
  5
92F
330
2
100
AcDbSymbolTableRecord
100
AcDbLayerTableRecord
  2
Defpoints
 70
     0
 62
     7
  6
Continuous
290
     0
370
    -3
390
F
  0
LAYER
  5
BA5
330
2
100
AcDbSymbolTableRecord
100
AcDbLayerTableRecord
  2
SANINDUSA
 70
     0
 62
     3
  6
Continuous
370
    -3
390
F
  0
ENDTAB
  0
TABLE
  2
STYLE
  5
3
330
0
100
AcDbSymbolTable
 70
     3
  0
STYLE
  5
11
330
3
100
AcDbSymbolTableRecord
100
AcDbTextStyleTableRecord
  2
Standard
 70
     0
 40
0.0
 41
1.0
 50
0.0
 71
     0
 42
2.5
  3
Avgardn.ttf
  4

1001
ACAD
1000
AvantGarde Bk BT
1071
       34
  0
STYLE
  5
2C
330
3
100
AcDbSymbolTableRecord
100
AcDbTextStyleTableRecord
  2

 70
     1
 40
0.0
 41
1.0
 50
0.0
 71
     0
 42
2.5
  3
ltypeshp.shx
  4

  0
STYLE
  5
91F
330
3
100
AcDbSymbolTableRecord
100
AcDbTextStyleTableRecord
  2
SANINDUSA
 70
     0
 40
0.0
 41
1.0
 50
0.0
 71
     0
 42
2.5
  3
verdana.TTF
  4

1001
ACAD
1000
Verdana
1071
       34
  0
ENDTAB
  0
TABLE
  2
VIEW
  5
6
330
0
100
AcDbSymbolTable
 70
     0
  0
ENDTAB
  0
TABLE
  2
UCS
  5
7
330
0
100
AcDbSymbolTable
 70
     0
  0
ENDTAB
  0
TABLE
  2
APPID
  5
9
330
0
100
AcDbSymbolTable
 70
     3
  0
APPID
  5
12
330
9
100
AcDbSymbolTableRecord
100
AcDbRegAppTableRecord
  2
ACAD
 70
     0
  0
APPID
  5
3A
330
9
100
AcDbSymbolTableRecord
100
AcDbRegAppTableRecord
  2
DCO15
 70
     0
  0
APPID
  5
154D
330
9
100
AcDbSymbolTableRecord
100
AcDbRegAppTableRecord
  2
ACAD_EXEMPT_FROM_CAD_STANDARDS
 70
     0
  0
ENDTAB
  0
TABLE
  2
DIMSTYLE
  5
A
330
0
100
AcDbSymbolTable
 70
     2
100
AcDbDimStyleTable
 71
     1
340
921
  0
DIMSTYLE
105
45
330
A
100
AcDbSymbolTableRecord
100
AcDbDimStyleTableRecord
  2
STANDARD
 70
     0
289
     0
340
11
  0
DIMSTYLE
105
921
330
A
100
AcDbSymbolTableRecord
100
AcDbDimStyleTableRecord
  2
SANINDUSA
 70
     0
 41
2.0
 42
1.0
 43
1.0
 44
1.0
 73
     0
 74
     0
 77
     1
 78
     8
140
2.0
141
0.0
143
0.03937007874016
147
1.0
171
     3
172
     1
176
   256
177
   256
178
   256
179
     1
271
     1
272
     1
274
     3
278
    44
283
     0
284
     8
340
91F
371
    -1
372
    -1
  0
ENDTAB
  0
TABLE
  2
BLOCK_RECORD
  5
1
330
0
100
AcDbSymbolTable
 70
   102
  0
BLOCK_RECORD
  5
1F
330
1
100
AcDbSymbolTableRecord
100
AcDbBlockTableRecord
  2
*Model_Space
340
22
  0
BLOCK_RECORD
  5
1B
330
1
100
AcDbSymbolTableRecord
100
AcDbBlockTableRecord
  2
*Paper_Space
340
1E
  0
BLOCK_RECORD
  5
23
330
1
100
AcDbSymbolTableRecord
100
AcDbBlockTableRecord
  2
*Paper_Space0
340
26
  0
BLOCK_RECORD
  5
919
330
1
100
AcDbSymbolTableRecord
100
AcDbBlockTableRecord
  2
_DotSmall
340
0
  0
BLOCK_RECORD
  5
922
330
1
100
AcDbSymbolTableRecord
100
AcDbBlockTableRecord
  2
base para cotas
340
0
310
2800000020000000200000000100080000000000000400000000000000000000000000000000000000000000000080000080000000808000800000008000800080800000C0C0C000C0DCC000F0CAA6000020400000206000002080000020A0000020C0000020E00000400000004020000040400000406000004080000040A0
310
000040C0000040E00000600000006020000060400000606000006080000060A0000060C0000060E00000800000008020000080400000806000008080000080A0000080C0000080E00000A0000000A0200000A0400000A0600000A0800000A0A00000A0C00000A0E00000C0000000C0200000C0400000C0600000C0800000C0
310
A00000C0C00000C0E00000E0000000E0200000E0400000E0600000E0800000E0A00000E0C00000E0E00040000000400020004000400040006000400080004000A0004000C0004000E00040200000402020004020400040206000402080004020A0004020C0004020E000404000004040200040404000404060004040800040
310
40A0004040C0004040E00040600000406020004060400040606000406080004060A0004060C0004060E00040800000408020004080400040806000408080004080A0004080C0004080E00040A0000040A0200040A0400040A0600040A0800040A0A00040A0C00040A0E00040C0000040C0200040C0400040C0600040C08000
310
40C0A00040C0C00040C0E00040E0000040E0200040E0400040E0600040E0800040E0A00040E0C00040E0E00080000000800020008000400080006000800080008000A0008000C0008000E00080200000802020008020400080206000802080008020A0008020C0008020E00080400000804020008040400080406000804080
310
008040A0008040C0008040E00080600000806020008060400080606000806080008060A0008060C0008060E00080800000808020008080400080806000808080008080A0008080C0008080E00080A0000080A0200080A0400080A0600080A0800080A0A00080A0C00080A0E00080C0000080C0200080C0400080C0600080C0
310
800080C0A00080C0C00080C0E00080E0000080E0200080E0400080E0600080E0800080E0A00080E0C00080E0E000C0000000C0002000C0004000C0006000C0008000C000A000C000C000C000E000C0200000C0202000C0204000C0206000C0208000C020A000C020C000C020E000C0400000C0402000C0404000C0406000C0
310
408000C040A000C040C000C040E000C0600000C0602000C0604000C0606000C0608000C060A000C060C000C060E000C0800000C0802000C0804000C0806000C0808000C080A000C080C000C080E000C0A00000C0A02000C0A04000C0A06000C0A08000C0A0A000C0A0C000C0A0E000C0C00000C0C02000C0C04000C0C06000
310
C0C08000C0C0A000F0FBFF00A4A0A000808080000000FF0000FF000000FFFF00FF000000FF00FF00FFFF0000FFFFFF00A4A4A4A4A4A4A4A4A4A4A4A4A4A4A4A4A4A4A4A4A4A4A4A4A4A4A4A4A4A4A4A4A4A4A4A4A4A4A4A4A4A4A4A4A4A4A4A4A4A4A4A4A4A4A4A4A4A4A4A4A4A4A4A4A4A4A4A4A4A4A4A4A4A4A4A4A4A4A4
310
A4A4A4A4A4A4A4A4A4A4A4A4A4A4A4A4A4A4A4A4A4A4A4A4A4A4A4A4A4A4A4A4A4A4A4A4A4A4A4A4A4A4A4A4A4A4A4A4A4A4A4A4A4A4A4A4A4A4A4A4A4A4A4A4A4A4A4A4A4A4A4A4A4A4A4A4A4A4A4A4A4A4A4A4A4A4A4A4A4A4A4A4A4A4A4A4A4A4A4A4A4A4A4A4A4A4A4A4A4A4A4A4A4A4A4A4A4A4A4A4A4A4A4A4A4A4A4
310
A4A4A4A4A4A4A4A4A4A4A4A4A4A4A4A4A4A4A4A4A4A4A4A4A4A4A4A4A4A4A4A4A4A4A4A4A4A4A4A4A4A4A4A4A4A4A4A4A4A4A4A4A4A4A4A4A4A4A4A4A4A4A4A4A4A4A4A4A4A4A4A4A4A4A4A4A4A4A4A4A4A4A4A4A4A4A4A4A4A4A4A4A4A4A4A4A4A4A4A4A4A4A4A4A4A4A4A4A4A4A4A4A4A4A4A4A4A4A4A4A4A4A4A4A4A4A4
310
A4A4A4A4A4A4A4A4A4A4A4A4A4A4A4A4A4A4A4A4A4A4A4A4A4A4A4A4A4A4A4A4A4A4A4A4A4A4A4A4A4A4A4A4A4A4A4A4A4A4A4A4A4A4A4A4A4A4A4A4A4A4A4A4A4A4A4A4A4A4A4A4A4A4A4A4A4A4A4A4A4A4A4A4A4A4A4A4A4A4A4A4A4A4A4A4A4A4A4A4A4A4A4A4A4A4A4A4A4A4A4A4A4A4A4A4F9F9F9F9F9F9F9F9F9F9F9
310
F9F9F9F9F9F9F9F9F9F9F9F9F9F9F9F9F9F9F9A4A4F9F9F9F9F9F9F9F9F9F9F9F9F9F9F9F9F9F9F9F9F9F9F9F9F9F9F9F9F9F9A4A4F9F9F9F9F9F9F9F9F9F9F9F9F9F9F9F9F9F9F9F9F9F9F9F9F9F9F9F9F9F9A4A4F9A4A4A4A4A4A4A4A4A4A4A4A4A4A4A4A4A4A4A4A4A4A4A4A4A4A4A4A4F9A4A4A4A4A4A4A4A4A4A4A4A4
310
A4A4A4A4A4A4A4A4A4A4A4A4A4A4A4A4A4A4A4A4A4A4A4A4A4A4A4A4A4A4A4A4A4A4A4A4A4A4A4A4A4A4A4A4A4A4A4A4A4A4A4A4A4A4A4A4A4A4A4A4A4A4A4A4A4A4A4A4A4A4A4A4A4A4A4A4A4A4A4A4A4A4A4A4A4A4A4A4A4A4A4A4A4A4A4A4A4A4A4A4A4A4A4A4A4A4A4A4A4A4A4A4A4A4A4A4A4A4A4A4A4A4A4A4A4A4A4
310
A4A4A4A4A4A4A4A4A4A4A4A4A4A4A4A4A4A4A4A4A4A4A4A4A4A4A4A4A4A4A4A4A4A4A4A4A4A4A4A4A4A4A4A4A4A4A4A4A4A4A4A4A4A4A4A4A4A4A4A4A4A4A4A4A4A4A4A4A4A4A4A4A4A4A4A4A4A4A4A4A4A4A4A4A4A4A4A4A4A4A4A4A4A4A4A4A4A4A4A4A4A4A4A4A4A4A4A4A4A4A4A4A4A4A4A4A4A4A4A4A4A4A4A4A4A4A4
310
A4A4A4A4A4A4A4A4A4A4A4A4A4A4A4A4A4A4A4A4A4A4A4A4A4A4A4A4A4A4A4A4A4A4A4A4A4A4A4A4A4A4A4A4A4A4A4A4A4A4A4A4A4A4A4A4A4A4A4A4A4A4A4A4A4A4A4A4A4A4A4A4A4A4A4A4A4A4A4A4A4A4A4A4A4A4A4A4A4A4A4A4A4A4A4A4A4A4A4A4A4A4A4A4A4A4A4A4A4A4A4A4A4A4A4A4A4A4A4A4A4A4A4A4A4A4A4
310
A4A4A4A4A4A4A4A4A4A4A4A4A4A4A4A4A4A4A4A4A4A4A4A4A4A4A4A4A4A4A4A4A4A4A4A4A4A4A4A4A4A4A4A4A4A4A4A4A4A4A4A4A4A4A4A4
1001
ACAD
1000
DesignCenter Data
1002
{
1070
     1
1070
     4
1002
}
  0
BLOCK_RECORD
  5
AA8
330
1
100
AcDbSymbolTableRecord
100
AcDbBlockTableRecord
  2
_CLOSED
340
0
  0
ENDTAB
  0
ENDSEC
  0
SECTION
  2
BLOCKS
  0
BLOCK
  5
20
330
1F
100
AcDbEntity
  8
0
100
AcDbBlockBegin
  2
*Model_Space
 70
     0
 10
0.0
 20
0.0
 30
0.0
  3
*Model_Space
  1

  0
ENDBLK
  5
21
330
1F
100
AcDbEntity
  8
0
100
AcDbBlockEnd
  0
BLOCK
  5
1C
330
1B
100
AcDbEntity
 67
     1
  8
0
100
AcDbBlockBegin
  2
*Paper_Space
 70
     0
 10
0.0
 20
0.0
 30
0.0
  3
*Paper_Space
  1

  0
ENDBLK
  5
1D
330
1B
100
AcDbEntity
 67
     1
  8
0
100
AcDbBlockEnd
  0
BLOCK
  5
24
330
23
100
AcDbEntity
 67
     1
  8
0
100
AcDbBlockBegin
  2
*Paper_Space0
 70
     0
 10
0.0
 20
0.0
 30
0.0
  3
*Paper_Space0
  1

  0
ENDBLK
  5
25
330
23
100
AcDbEntity
 67
     1
  8
0
100
AcDbBlockEnd
  0
BLOCK
  5
91B
330
919
100
AcDbEntity
  8
0
100
AcDbBlockBegin
  2
_DotSmall
 70
     0
 10
0.0
 20
0.0
 30
0.0
  3
_DotSmall
  1

  0
LWPOLYLINE
  5
91A
330
919
100
AcDbEntity
  8
0
  6
ByBlock
 62
     0
100
AcDbPolyline
 90
        2
 70
     1
 43
0.5
 10
-0.0625
 20
0.0
 42
1.0
 10
0.0625
 20
0.0
 42
1.0
  0
ENDBLK
  5
91C
330
919
100
AcDbEntity
  8
0
100
AcDbBlockEnd
  0
BLOCK
  5
92A
330
922
100
AcDbEntity
  8
0
100
AcDbBlockBegin
  2
base para cotas
 70
     0
 10
0.0
 20
0.0
 30
0.0
  3
base para cotas
  1

  0
LINE
  5
B36
330
922
100
AcDbEntity
  8
cotas
100
AcDbLine
 10
0.0
 20
-30.0
 30
0.0
 11
327.1260136525398
 21
-30.0
 31
0.0
  0
LINE
  5
B37
330
922
100
AcDbEntity
  8
cotas
100
AcDbLine
 10
0.0
 20
-25.0
 30
0.0
 11
327.1260136525398
 21
-25.0
 31
0.0
  0
LINE
  5
B38
330
922
100
AcDbEntity
  8
cotas
100
AcDbLine
 10
0.0
 20
-20.0
 30
0.0
 11
327.1260136525398
 21
-20.0
 31
0.0
  0
LINE
  5
B39
330
922
100
AcDbEntity
  8
cotas
100
AcDbLine
 10
0.0
 20
-15.0
 30
0.0
 11
327.1260136525398
 21
-15.0
 31
0.0
  0
LINE
  5
B3A
330
922
100
AcDbEntity
  8
cotas
100
AcDbLine
 10
0.0
 20
-10.0
 30
0.0
 11
327.1260136525398
 21
-10.0
 31
0.0
  0
LINE
  5
B3B
330
922
100
AcDbEntity
  8
cotas
100
AcDbLine
 10
0.0
 20
0.0
 30
0.0
 11
0.0
 21
-30.0
 31
0.0
  0
LINE
  5
B3C
330
922
100
AcDbEntity
  8
cotas
100
AcDbLine
 10
327.1260136525398
 20
-30.0
 30
0.0
 11
327.1260136525398
 21
0.0
 31
0.0
  0
ENDBLK
  5
92B
330
922
100
AcDbEntity
  8
0
100
AcDbBlockEnd
  0
BLOCK
  5
AAD
330
AA8
100
AcDbEntity
  8
0
100
AcDbBlockBegin
  2
_CLOSED
 70
     0
 10
0.0
 20
0.0
 30
0.0
  3
_CLOSED
  1

  0
LINE
  5
AA9
330
AA8
100
AcDbEntity
  8
0
100
AcDbLine
 10
-1.0
 20
0.166667
 30
0.0
 11
0.0
 21
0.0
 31
0.0
  0
LINE
  5
AAA
330
AA8
100
AcDbEntity
  8
0
100
AcDbLine
 10
0.0
 20
0.0
 30
0.0
 11
-1.0
 21
-0.166667
 31
0.0
  0
LINE
  5
AAB
330
AA8
100
AcDbEntity
  8
0
100
AcDbLine
 10
-1.0
 20
0.166667
 30
0.0
 11
-1.0
 21
-0.166667
 31
0.0
  0
LINE
  5
AAC
330
AA8
100
AcDbEntity
  8
0
100
AcDbLine
 10
0.0
 20
0.0
 30
0.0
 11
-1.0
 21
0.0
 31
0.0
  0
ENDBLK
  5
AAE
330
AA8
100
AcDbEntity
  8
0
100
AcDbBlockEnd
  0
ENDSEC
  0
SECTION
  2
ENTITIES
  0
LINE
  5
1056
330
1F
100
AcDbEntity
  8
SANINDUSA
100
AcDbLine
 10
1631.66317043314
 20
859.2248729663966
 30
0.0
 11
1631.893511454869
 21
859.1747362376697
 31
0.0
  0
LINE
  5
1057
330
1F
100
AcDbEntity
  8
SANINDUSA
100
AcDbLine
 10
1631.893511454869
 20
859.4833329561879
 30
0.0
 11
1631.66317043314
 21
859.433196227461
 31
0.0
  0
LINE
  5
1058
330
1F
100
AcDbEntity
  8
SANINDUSA
100
AcDbLine
 10
1631.911232900551
 20
859.1590345969288
 30
0.0
 11
1631.121232900551
 21
859.1590345969288
 31
0.0
  0
LINE
  5
105B
330
1F
100
AcDbEntity
  8
SANINDUSA
100
AcDbLine
 10
1631.911232900551
 20
859.6090345969289
 30
0.0
 11
1631.121232900551
 21
859.6090345969289
 31
0.0
  0
LINE
  5
105D
330
1F
100
AcDbEntity
  8
SANINDUSA
100
AcDbLine
 10
1631.9070725136
 20
859.166274673686
 30
0.0
 11
1631.409555545881
 21
859.166274673686
 31
0.0
  0
LINE
  5
105E
330
1F
100
AcDbEntity
  8
SANINDUSA
100
AcDbLine
 10
1631.409555545881
 20
859.4917945201718
 30
0.0
 11
1631.9070725136
 21
859.4917945201718
 31
0.0
  0
LINE
  5
105F
330
1F
100
AcDbEntity
  8
SANINDUSA
100
AcDbLine
 10
1632.923498144038
 20
859.3344367407873
 30
0.0
 11
1632.133498144038
 21
859.3344367407873
 31
0.0
  0
LINE
  5
1060
330
1F
100
AcDbEntity
  8
SANINDUSA
100
AcDbLine
 10
1632.133498144038
 20
859.4294367407872
 30
0.0
 11
1632.923498144038
 21
859.4294367407872
 31
0.0
  0
LWPOLYLINE
  5
1063
330
1F
100
AcDbEntity
  8
SANINDUSA
100
AcDbPolyline
 90
        3
 70
   128
 43
0.0
 10
1632.710703322212
 20
859.3077846020156
 10
1632.713169443424
 20
859.3272080727906
 10
1632.713981384528
 20
859.3344367407873
  0
LINE
  5
1064
330
1F
100
AcDbEntity
  8
SANINDUSA
100
AcDbLine
 10
1632.686142412444
 20
859.3103030134631
 30
0.0
 11
1632.686142412444
 21
859.312631691718
 31
0.0
  0
LINE
  5
1067
330
1F
100
AcDbEntity
  8
SANINDUSA
100
AcDbLine
 10
1632.654741273948
 20
859.3103030134631
 30
0.0
 11
1632.654741273948
 21
859.312631691718
 31
0.0
  0
LINE
  5
106B
330
1F
100
AcDbEntity
  8
SANINDUSA
100
AcDbLine
 10
1631.65317043314
 20
859.4331958504211
 30
0.0
 11
1631.65317043314
 21
859.2248733434367
 31
0.0
  0
LINE
  5
106C
330
1F
100
AcDbEntity
  8
SANINDUSA
100
AcDbLine
 10
1631.66317043314
 20
859.2248729663966
 30
0.0
 11
1631.66317043314
 21
859.433196227461
 31
0.0
  0
LINE
  5
106E
330
1F
100
AcDbEntity
  8
SANINDUSA
100
AcDbLine
 10
1631.116232900551
 20
859.1640345969288
 30
0.0
 11
1631.116232900551
 21
859.6090345969289
 31
0.0
  0
LINE
  5
1070
330
1F
100
AcDbEntity
  8
SANINDUSA
100
AcDbLine
 10
1631.409555545881
 20
859.166274673686
 30
0.0
 11
1631.409555545881
 21
859.4917945201718
 31
0.0
  0
ARC
  5
1071
330
1F
100
AcDbEntity
  8
SANINDUSA
100
AcDbCircle
 10
1631.121232900551
 20
859.1640345969288
 30
0.0
 40
0.005
100
AcDbArc
 50
180.0
 51
270.0
  0
LINE
  5
1075
330
1F
100
AcDbEntity
  8
SANINDUSA
100
AcDbLine
 10
1631.423100735732
 20
859.1747362376697
 30
0.0
 11
1631.65317043314
 21
859.2248733434367
 31
0.0
  0
LWPOLYLINE
  5
1077
330
1F
100
AcDbEntity
  8
SANINDUSA
100
AcDbPolyline
 90
        7
 70
   128
 43
0.0
 10
1631.411190450929
 20
859.1695444837833
 10
1631.412425323284
 20
859.1705856709968
 10
1631.413990508384
 20
859.1715722539429
 10
1631.415866181168
 20
859.1724917362936
 10
1631.418028583855
 20
859.1733324716347
 10
1631.420450326862
 20
859.174083810983
 10
1631.423100735732
 20
859.1747362376697
  0
LINE
  5
107B
330
1F
100
AcDbEntity
  8
SANINDUSA
100
AcDbLine
 10
1631.409555545881
 20
859.166274673686
 30
0.0
 11
1631.411190450929
 21
859.1695444837833
 31
0.0
  0
LWPOLYLINE
  5
107C
330
1F
100
AcDbEntity
  8
SANINDUSA
100
AcDbPolyline
 90
        6
 70
   128
 43
0.0
 10
1631.658168202307
 20
859.222070962279
 10
1631.65990113567
 20
859.2223555549995
 10
1631.661301315721
 20
859.2227920037085
 10
1631.662330039835
 20
859.2233682444504
 10
1631.66295887287
 20
859.2240683492532
 10
1631.66317043314
 20
859.2248729663966
  0
LWPOLYLINE
  5
107E
330
1F
100
AcDbEntity
  8
SANINDUSA
100
AcDbPolyline
 90
        6
 70
   128
 43
0.0
 10
1631.65317043314
 20
859.2248733434367
 10
1631.653381806816
 20
859.2240686175783
 10
1631.654010084193
 20
859.223368415151
 10
1631.655037895868
 20
859.2227920940011
 10
1631.656436826889
 20
859.2223555871438
 10
1631.658168202307
 20
859.222070962279
  0
LINE
  5
107F
330
1F
100
AcDbEntity
  8
SANINDUSA
100
AcDbLine
 10
1631.116232900551
 20
859.6090345969289
 30
0.0
 11
1631.121232900551
 21
859.6090345969289
 31
0.0
  0
LINE
  5
1081
330
1F
100
AcDbEntity
  8
SANINDUSA
100
AcDbLine
 10
1631.65317043314
 20
859.4331958504211
 30
0.0
 11
1631.423100735732
 21
859.4833329561879
 31
0.0
  0
LWPOLYLINE
  5
1082
330
1F
100
AcDbEntity
  8
SANINDUSA
100
AcDbPolyline
 90
        7
 70
   128
 43
0.0
 10
1631.423100735732
 20
859.4833329561879
 10
1631.420450326862
 20
859.4839853828746
 10
1631.418028583855
 20
859.484736722223
 10
1631.415866181168
 20
859.4855774575641
 10
1631.413990508384
 20
859.4864969399148
 10
1631.412425323284
 20
859.487483522861
 10
1631.411190450929
 20
859.4885247100743
  0
LINE
  5
1087
330
1F
100
AcDbEntity
  8
SANINDUSA
100
AcDbLine
 10
1631.411190450929
 20
859.4885247100743
 30
0.0
 11
1631.409555545881
 21
859.4917945201718
 31
0.0
  0
LWPOLYLINE
  5
1089
330
1F
100
AcDbEntity
  8
SANINDUSA
100
AcDbPolyline
 90
        6
 70
   128
 43
0.0
 10
1631.66317043314
 20
859.433196227461
 10
1631.66295887287
 20
859.4340008446046
 10
1631.662330039835
 20
859.4347009494073
 10
1631.661301315721
 20
859.435277190149
 10
1631.65990113567
 20
859.435713638858
 10
1631.658168202307
 20
859.4359982315786
  0
LWPOLYLINE
  5
108A
330
1F
100
AcDbEntity
  8
SANINDUSA
100
AcDbPolyline
 90
        6
 70
   128
 43
0.0
 10
1631.658168202307
 20
859.4359982315786
 10
1631.656436826889
 20
859.4357136067138
 10
1631.655037895868
 20
859.4352770998566
 10
1631.654010084193
 20
859.4347007787066
 10
1631.653381806816
 20
859.4340005762793
 10
1631.65317043314
 20
859.4331958504211
  0
CIRCLE
  5
108C
330
1F
100
AcDbEntity
  8
SANINDUSA
100
AcDbCircle
 10
1631.658169480714
 20
859.5419345969288
 30
0.0
 40
0.0175
  0
LINE
  5
108E
330
1F
100
AcDbEntity
  8
SANINDUSA
100
AcDbLine
 10
1632.700435676627
 20
859.295319745763
 30
0.0
 11
1632.640435676627
 21
859.295319745763
 31
0.0
  0
LINE
  5
1091
330
1F
100
AcDbEntity
  8
SANINDUSA
100
AcDbLine
 10
1632.706203429356
 20
859.303319745763
 30
0.0
 11
1632.634512253163
 21
859.303319745763
 31
0.0
  0
LINE
  5
1092
330
1F
100
AcDbEntity
  8
SANINDUSA
100
AcDbLine
 10
1632.686142412444
 20
859.3103030134631
 30
0.0
 11
1632.654741273948
 21
859.3103030134631
 31
0.0
  0
LWPOLYLINE
  5
1094
330
1F
100
AcDbEntity
  8
SANINDUSA
100
AcDbPolyline
 90
        9
 70
   128
 43
0.0
 10
1632.634844856311
 20
859.303250765757
 10
1632.634123045281
 20
859.3034004652697
 10
1632.633255686286
 20
859.3036405609495
 10
1632.632445418495
 20
859.3040322543448
 10
1632.63171849322
 20
859.3045628552481
 10
1632.631098461618
 20
859.3052151730832
 10
1632.63060541167
 20
859.3059680738496
 10
1632.630255317363
 20
859.3067971648295
 10
1632.630059521165
 20
859.3076755848697
  0
LWPOLYLINE
  5
109E
330
1F
100
AcDbEntity
  8
SANINDUSA
100
AcDbPolyline
 90
        3
 70
   128
 43
0.0
 10
1632.654741273948
 20
859.3103030134631
 10
1632.652630349701
 20
859.3090830128964
 10
1632.642569548594
 20
859.3033995272364
  0
LWPOLYLINE
  5
10A1
330
1F
100
AcDbEntity
  8
SANINDUSA
100
AcDbPolyline
 90
       10
 70
   128
 43
0.0
 10
1632.634844856311
 20
859.303250765757
 10
1632.634906732622
 20
859.303237496498
 10
1632.635266354164
 20
859.3031429818122
 10
1632.635698847019
 20
859.3029721517485
 10
1632.636202784061
 20
859.3026958773029
 10
1632.636779580362
 20
859.3022624330219
 10
1632.63737330552
 20
859.3016371945312
 10
1632.637911304786
 20
859.3007937622555
 10
1632.638291750501
 20
859.2997650413352
 10
1632.638333394844
 20
859.2994367407873
  0
ARC
  5
10A2
330
1F
100
AcDbEntity
  8
SANINDUSA
100
AcDbCircle
 10
1632.640435676627
 20
859.2973197457631
 30
0.0
 40
0.002
100
AcDbArc
 50
180.0
 51
270.0
  0
LINE
  5
10A3
330
1F
100
AcDbEntity
  8
SANINDUSA
100
AcDbLine
 10
1632.638435676627
 20
859.2985731603119
 30
0.0
 11
1632.638435676627
 21
859.2973197457631
 31
0.0
  0
LWPOLYLINE
  5
10A8
330
1F
100
AcDbEntity
  8
SANINDUSA
100
AcDbPolyline
 90
        9
 70
   128
 43
0.0
 10
1632.706315252407
 20
859.303351498856
 10
1632.707138296049
 20
859.303516699224
 10
1632.707922002852
 20
859.3038185115071
 10
1632.708644082029
 20
859.3042483513297
 10
1632.709283995654
 20
859.3047939928593
 10
1632.709823542815
 20
859.3054399165438
 10
1632.7102473773
 20
859.3061677505284
 10
1632.710543444085
 20
859.3069567932037
 10
1632.710703322212
 20
859.3077846020156
  0
LWPOLYLINE
  5
10AE
330
1F
100
AcDbEntity
  8
SANINDUSA
100
AcDbPolyline
 90
        3
 70
   128
 43
0.0
 10
1632.698372036406
 20
859.3033995272364
 10
1632.691592224507
 20
859.3072192412114
 10
1632.686142412444
 20
859.3103030134631
  0
LWPOLYLINE
  5
10B1
330
1F
100
AcDbEntity
  8
SANINDUSA
100
AcDbPolyline
 90
        3
 70
   128
 43
0.0
 10
1632.702435676627
 20
859.2985774176954
 10
1632.702495581992
 20
859.2993454408349
 10
1632.702520258913
 20
859.2994367407873
  0
ARC
  5
10B2
330
1F
100
AcDbEntity
  8
SANINDUSA
100
AcDbCircle
 10
1632.700435676627
 20
859.2973197457631
 30
0.0
 40
0.002
100
AcDbArc
 50
270.0
 51
0.0
  0
LINE
  5
10B3
330
1F
100
AcDbEntity
  8
SANINDUSA
100
AcDbLine
 10
1632.702435676627
 20
859.2973197457631
 30
0.0
 11
1632.702435676627
 21
859.2985808955507
 31
0.0
  0
LINE
  5
10B4
330
1F
100
AcDbEntity
  8
SANINDUSA
100
AcDbLine
 10
1632.128498144038
 20
859.3394367407872
 30
0.0
 11
1632.128498144038
 21
859.4244367407872
 31
0.0
  0
ARC
  5
10B6
330
1F
100
AcDbEntity
  8
SANINDUSA
100
AcDbCircle
 10
1632.133498144038
 20
859.3394367407872
 30
0.0
 40
0.005
100
AcDbArc
 50
180.0
 51
270.0
  0
ARC
  5
10B9
330
1F
100
AcDbEntity
  8
SANINDUSA
100
AcDbCircle
 10
1632.133498144038
 20
859.4244367407872
 30
0.0
 40
0.005
100
AcDbArc
 50
90.0
 51
180.0
  0
LWPOLYLINE
  5
10BF
330
1F
100
AcDbEntity
  8
SANINDUSA
100
AcDbPolyline
 90
        3
 70
   128
 43
0.0
 10
1632.652129157277
 20
859.3344624872312
 10
1632.653439789901
 20
859.3235474838822
 10
1632.654741273948
 20
859.312631691718
  0
LWPOLYLINE
  5
10C2
330
1F
100
AcDbEntity
  8
SANINDUSA
100
AcDbPolyline
 90
        3
 70
   128
 43
0.0
 10
1632.686142412444
 20
859.312631691718
 10
1632.687431168693
 20
859.323536827885
 10
1632.688732912497
 20
859.3344408721023
  0
LINE
  5
10C4
330
1F
100
AcDbEntity
  8
SANINDUSA
100
AcDbLine
 10
1631.916232900551
 20
859.6090345969289
 30
0.0
 11
1631.916232900551
 21
859.1640345969288
 31
0.0
  0
LINE
  5
10C6
330
1F
100
AcDbEntity
  8
SANINDUSA
100
AcDbLine
 10
1631.9070725136
 20
859.4917945201718
 30
0.0
 11
1631.9070725136
 21
859.166274673686
 31
0.0
  0
LWPOLYLINE
  5
10C8
330
1F
100
AcDbEntity
  8
SANINDUSA
100
AcDbPolyline
 90
        7
 70
   128
 43
0.0
 10
1631.893511454869
 20
859.1747362376697
 10
1631.896166389047
 20
859.1740834295695
 10
1631.898592120392
 20
859.1733316064587
 10
1631.900757890634
 20
859.1724903014524
 10
1631.902636237811
 20
859.171570182297
 10
1631.904203344484
 20
859.1705829161018
 10
1631.905439339743
 20
859.1695410214002
  0
ARC
  5
10C9
330
1F
100
AcDbEntity
  8
SANINDUSA
100
AcDbCircle
 10
1631.911232900551
 20
859.1640345969288
 30
0.0
 40
0.005
100
AcDbArc
 50
270.0
 51
0.0
  0
LINE
  5
10CE
330
1F
100
AcDbEntity
  8
SANINDUSA
100
AcDbLine
 10
1631.905439339743
 20
859.1695410214002
 30
0.0
 11
1631.9070725136
 21
859.166274673686
 31
0.0
  0
LWPOLYLINE
  5
10D1
330
1F
100
AcDbEntity
  8
SANINDUSA
100
AcDbPolyline
 90
        7
 70
   128
 43
0.0
 10
1631.905439339743
 20
859.4885281724573
 10
1631.904203344484
 20
859.4874862777558
 10
1631.902636237811
 20
859.4864990115606
 10
1631.900757890634
 20
859.4855788924053
 10
1631.898592120392
 20
859.4847375873991
 10
1631.896166389047
 20
859.4839857642879
 10
1631.893511454869
 20
859.4833329561879
  0
LINE
  5
10D5
330
1F
100
AcDbEntity
  8
SANINDUSA
100
AcDbLine
 10
1631.9070725136
 20
859.4917945201718
 30
0.0
 11
1631.905439339743
 21
859.4885281724573
 31
0.0
  0
LINE
  5
10D6
330
1F
100
AcDbEntity
  8
SANINDUSA
100
AcDbLine
 10
1631.911232900551
 20
859.6090345969289
 30
0.0
 11
1631.916232900551
 21
859.6090345969289
 31
0.0
  0
LINE
  5
10D7
330
1F
100
AcDbEntity
  8
SANINDUSA
100
AcDbLine
 10
1632.928498144038
 20
859.4244367407872
 30
0.0
 11
1632.928498144038
 21
859.3394367407872
 31
0.0
  0
ARC
  5
10DA
330
1F
100
AcDbEntity
  8
SANINDUSA
100
AcDbCircle
 10
1632.923498144038
 20
859.3394367407872
 30
0.0
 40
0.005
100
AcDbArc
 50
270.0
 51
0.0
  0
ARC
  5
10DC
330
1F
100
AcDbEntity
  8
SANINDUSA
100
AcDbCircle
 10
1632.923498144038
 20
859.4244367407872
 30
0.0
 40
0.005
100
AcDbArc
 50
0.0
 51
90.0
  0
LWPOLYLINE
  5
10DF
330
1F
100
AcDbEntity
  8
SANINDUSA
100
AcDbPolyline
 90
       10
 70
   128
 43
0.0
 10
1632.702520258913
 20
859.2994367407873
 10
1632.702769844399
 20
859.3003601599912
 10
1632.703200450805
 20
859.3012129274198
 10
1632.703718113608
 20
859.3018906193687
 10
1632.704253748939
 20
859.3023937878786
 10
1632.704759191632
 20
859.3027475453498
 10
1632.705212051078
 20
859.3029862074656
 10
1632.705608005974
 20
859.3031404272377
 10
1632.705937387394
 20
859.3032442009175
 10
1632.706315252407
 20
859.303351498856
  0
LWPOLYLINE
  5
10E0
330
1F
100
AcDbEntity
  8
SANINDUSA
100
AcDbPolyline
 90
        3
 70
   128
 43
0.0
 10
1632.638333394844
 20
859.2994367407873
 10
1632.638434577263
 20
859.2986202697076
 10
1632.638435676627
 20
859.2985731603119
  0
LINE
  5
113F
330
1F
100
AcDbEntity
  8
SANINDUSA
100
AcDbLine
 10
1632.626934984788
 20
859.3344367407873
 30
0.0
 11
1632.630069011927
 21
859.3076793256264
 31
0.0
  0
LINE
  5
1149
330
1F
100
AcDbEntity
  8
SANINDUSA
100
AcDbLine
 10
1631.657169480714
 20
859.4089296408096
 30
0.0
 11
1631.657169480714
 21
859.2488872046022
 31
0.0
  0
LINE
  5
114A
330
1F
100
AcDbEntity
  8
SANINDUSA
100
AcDbLine
 10
1631.659169480714
 20
859.2488872046022
 30
0.0
 11
1631.659169480714
 21
859.4089296408096
 31
0.0
  0
LINE
  5
114B
330
1F
100
AcDbEntity
  8
SANINDUSA
100
AcDbLine
 10
1631.657169480714
 20
859.2488872046022
 30
0.0
 11
1631.659169480714
 21
859.2488872046022
 31
0.0
  0
LINE
  5
114C
330
1F
100
AcDbEntity
  8
SANINDUSA
100
AcDbLine
 10
1631.659169480714
 20
859.4089296408096
 30
0.0
 11
1631.657169480714
 21
859.4089296408096
 31
0.0
  0
LINE
  5
114E
330
1F
100
AcDbEntity
  8
SANINDUSA
100
AcDbLine
 10
1633.915908357152
 20
859.4294490184735
 30
0.0
 11
1634.241428203637
 21
859.4294490184735
 31
0.0
  0
LINE
  5
1150
330
1F
100
AcDbEntity
  8
SANINDUSA
100
AcDbLine
 10
1634.169710716602
 20
859.3454490184734
 30
0.0
 11
1633.997668968854
 21
859.3454490184734
 31
0.0
  0
LINE
  5
1151
330
1F
100
AcDbEntity
  8
SANINDUSA
100
AcDbLine
 10
1633.821573611881
 20
859.3344490184735
 30
0.0
 11
1633.799668280395
 21
859.3344490184735
 31
0.0
  0
LINE
  5
1154
330
1F
100
AcDbEntity
  8
SANINDUSA
100
AcDbLine
 10
1633.884262941451
 20
859.4294490184735
 30
0.0
 11
1633.915908357152
 21
859.4294490184735
 31
0.0
  0
LINE
  5
1155
330
1F
100
AcDbEntity
  8
SANINDUSA
100
AcDbLine
 10
1633.884262941451
 20
859.4174490184734
 30
0.0
 11
1633.907911852827
 21
859.4174490184734
 31
0.0
  0
LINE
  5
1157
330
1F
100
AcDbEntity
  8
SANINDUSA
100
AcDbLine
 10
1633.828201654118
 20
859.3703829853277
 30
0.0
 11
1633.830419955554
 21
859.4127106982547
 31
0.0
  0
LINE
  5
1158
330
1F
100
AcDbEntity
  8
SANINDUSA
100
AcDbLine
 10
1633.798668280395
 20
859.3704353212839
 30
0.0
 11
1633.798668280395
 21
859.4284490184733
 31
0.0
  0
LINE
  5
115A
330
1F
100
AcDbEntity
  8
SANINDUSA
100
AcDbLine
 10
1633.799668280395
 20
859.4294490184735
 30
0.0
 11
1633.8472637071
 21
859.4294490184735
 31
0.0
  0
LINE
  5
115B
330
1F
100
AcDbEntity
  8
SANINDUSA
100
AcDbLine
 10
1633.884262941451
 20
859.4174490184734
 30
0.0
 11
1633.8472637071
 21
859.4174490184734
 31
0.0
  0
LINE
  5
115C
330
1F
100
AcDbEntity
  8
SANINDUSA
100
AcDbLine
 10
1633.8472637071
 20
859.4294490184735
 30
0.0
 11
1633.884262941451
 21
859.4294490184735
 31
0.0
  0
LINE
  5
115D
330
1F
100
AcDbEntity
  8
SANINDUSA
100
AcDbLine
 10
1633.848263728976
 20
859.4184490184733
 30
0.0
 11
1633.848263728976
 21
859.4284490184733
 31
0.0
  0
LWPOLYLINE
  5
115E
330
1F
100
AcDbEntity
  8
SANINDUSA
100
AcDbPolyline
 90
        7
 70
   128
 43
0.0
 10
1633.8472637071
 20
859.4294490184735
 10
1633.847419930176
 20
859.4294367407872
 10
1633.847622921049
 20
859.4293822766289
 10
1633.84791159355
 20
859.4292107672186
 10
1633.848127222361
 20
859.4289533732736
 10
1633.848245493247
 20
859.4286391186816
 10
1633.848263728976
 20
859.4284490184733
  0
ARC
  5
1161
330
1F
100
AcDbEntity
  8
SANINDUSA
100
AcDbCircle
 10
1633.835413103228
 20
859.4124490184734
 30
0.0
 40
0.005
100
AcDbArc
 50
90.0
 51
176.999999996727
  0
LINE
  5
1162
330
1F
100
AcDbEntity
  8
SANINDUSA
100
AcDbLine
 10
1633.835413103228
 20
859.4174490184734
 30
0.0
 11
1633.8472637071
 21
859.4174490184734
 31
0.0
  0
LWPOLYLINE
  5
1163
330
1F
100
AcDbEntity
  8
SANINDUSA
100
AcDbPolyline
 90
        7
 70
   128
 43
0.0
 10
1633.848263728976
 20
859.4184490184733
 10
1633.848213552904
 20
859.4181362369086
 10
1633.848056479529
 20
859.4178394784414
 10
1633.847810029909
 20
859.4176114361689
 10
1633.847622921049
 20
859.417515760318
 10
1633.847293744828
 20
859.4174494696892
 10
1633.8472637071
 20
859.4174490184734
  0
LINE
  5
1164
330
1F
100
AcDbEntity
  8
SANINDUSA
100
AcDbLine
 10
1633.883262919575
 20
859.4284490184733
 30
0.0
 11
1633.883262919575
 21
859.4184490184733
 31
0.0
  0
LWPOLYLINE
  5
1165
330
1F
100
AcDbEntity
  8
SANINDUSA
100
AcDbPolyline
 90
        7
 70
   128
 43
0.0
 10
1633.883262919575
 20
859.4284490184733
 10
1633.883265387725
 20
859.4285192331032
 10
1633.883302087067
 20
859.4287261450791
 10
1633.88344798266
 20
859.4290285621926
 10
1633.883685755151
 20
859.4292656396874
 10
1633.883988601881
 20
859.4294106529996
 10
1633.884262941451
 20
859.4294490184735
  0
LWPOLYLINE
  5
1166
330
1F
100
AcDbEntity
  8
SANINDUSA
100
AcDbPolyline
 90
        7
 70
   128
 43
0.0
 10
1633.884262941451
 20
859.4174490184734
 10
1633.883958281847
 20
859.4174965551243
 10
1633.883660171923
 20
859.4176510933898
 10
1633.883506709793
 20
859.4177946956515
 10
1633.883332751908
 20
859.4180818875436
 10
1633.883263662807
 20
859.4184104713889
 10
1633.883262919575
 20
859.4184490184733
  0
LINE
  5
116A
330
1F
100
AcDbEntity
  8
SANINDUSA
100
AcDbLine
 10
1633.798668280395
 20
859.3704353212839
 30
0.0
 11
1633.798668280395
 21
859.3484489809519
 31
0.0
  0
LINE
  5
116B
330
1F
100
AcDbEntity
  8
SANINDUSA
100
AcDbLine
 10
1633.826566759555
 20
859.3391873386922
 30
0.0
 11
1633.82704939983
 21
859.3483966637565
 31
0.0
  0
LINE
  5
116C
330
1F
100
AcDbEntity
  8
SANINDUSA
100
AcDbLine
 10
1633.828201654118
 20
859.3703829853277
 30
0.0
 11
1633.82704939983
 21
859.3483966637565
 31
0.0
  0
LINE
  5
1170
330
1F
100
AcDbEntity
  8
SANINDUSA
100
AcDbLine
 10
1633.926645535462
 20
859.3943952640453
 30
0.0
 11
1633.93817230523
 21
859.3342607626285
 31
0.0
  0
LINE
  5
1171
330
1F
100
AcDbEntity
  8
SANINDUSA
100
AcDbLine
 10
1633.912822452935
 20
859.4133902976981
 30
0.0
 11
1633.93314077968
 21
859.3073907442246
 31
0.0
  0
ARC
  5
1176
330
1F
100
AcDbEntity
  8
SANINDUSA
100
AcDbCircle
 10
1633.915908357152
 20
859.4244490184735
 30
0.0
 40
0.0050000000000001
100
AcDbArc
 50
32.20395311497848
 51
90.0
  0
ARC
  5
117A
330
1F
100
AcDbEntity
  8
SANINDUSA
100
AcDbCircle
 10
1633.907911852827
 20
859.4124490184734
 30
0.0
 40
0.005
100
AcDbArc
 50
10.85101477090525
 51
90.0
  0
LINE
  5
117B
330
1F
100
AcDbEntity
  8
SANINDUSA
100
AcDbLine
 10
1633.994916271101
 20
859.3133320234493
 30
0.0
 11
1633.948921260186
 21
859.3133320234493
 31
0.0
  0
LINE
  5
117C
330
1F
100
AcDbEntity
  8
SANINDUSA
100
AcDbLine
 10
1633.948921260186
 20
859.2953320234492
 30
0.0
 11
1633.994916271101
 21
859.2953320234492
 31
0.0
  0
LINE
  5
117D
330
1F
100
AcDbEntity
  8
SANINDUSA
100
AcDbLine
 10
1633.997668968854
 20
859.3334490184735
 30
0.0
 11
1633.967865795856
 21
859.3334490184735
 31
0.0
  0
LINE
  5
117E
330
1F
100
AcDbEntity
  8
SANINDUSA
100
AcDbLine
 10
1633.997668968854
 20
859.3454490184734
 30
0.0
 11
1633.971920024221
 21
859.3454490184734
 31
0.0
  0
LWPOLYLINE
  5
117F
330
1F
100
AcDbEntity
  8
SANINDUSA
100
AcDbPolyline
 90
        4
 70
   128
 43
0.0
 10
1633.971920024221
 20
859.3454490184734
 10
1633.971477773886
 20
859.3458473149469
 10
1633.971081324418
 20
859.3462928326031
 10
1633.970735880262
 20
859.3467797228477
  0
ARC
  5
1180
330
1F
100
AcDbEntity
  8
SANINDUSA
100
AcDbCircle
 10
1633.938051379788
 20
859.3083320234493
 30
0.0
 40
0.0050000000000002
100
AcDbArc
 50
190.8510147709052
 51
250.9310268553371
  0
LINE
  5
1181
330
1F
100
AcDbEntity
  8
SANINDUSA
100
AcDbLine
 10
1633.949921260185
 20
859.3123320234493
 30
0.0
 11
1633.949921260185
 21
859.2963320234492
 31
0.0
  0
LINE
  5
1183
330
1F
100
AcDbEntity
  8
SANINDUSA
100
AcDbLine
 10
1633.943010513929
 20
859.3133320234493
 30
0.0
 11
1633.948921260186
 21
859.3133320234493
 31
0.0
  0
LINE
  5
1184
330
1F
100
AcDbEntity
  8
SANINDUSA
100
AcDbLine
 10
1633.93817230523
 20
859.3342607626285
 30
0.0
 11
1633.942028393908
 21
859.3141437676043
 31
0.0
  0
LINE
  5
1185
330
1F
100
AcDbEntity
  8
SANINDUSA
100
AcDbLine
 10
1633.948921260186
 20
859.2953320234492
 30
0.0
 11
1633.941892124197
 21
859.2953320234492
 31
0.0
  0
LINE
  5
1186
330
1F
100
AcDbEntity
  8
SANINDUSA
100
AcDbLine
 10
1633.998668968854
 20
859.3344490184735
 30
0.0
 11
1633.998668968854
 21
859.3444490184735
 31
0.0
  0
LINE
  5
1187
330
1F
100
AcDbEntity
  8
SANINDUSA
100
AcDbLine
 10
1634.009019650519
 20
859.3033320234493
 30
0.0
 11
1634.030029323465
 21
859.3033320234493
 31
0.0
  0
LINE
  5
1188
330
1F
100
AcDbEntity
  8
SANINDUSA
100
AcDbLine
 10
1633.994916271101
 20
859.3133320234493
 30
0.0
 11
1634.029771391705
 21
859.3133320234493
 31
0.0
  0
LINE
  5
1189
330
1F
100
AcDbEntity
  8
SANINDUSA
100
AcDbLine
 10
1633.993916271101
 20
859.2963320234492
 30
0.0
 11
1633.993916271101
 21
859.3123320234493
 31
0.0
  0
LINE
  5
118A
330
1F
100
AcDbEntity
  8
SANINDUSA
100
AcDbLine
 10
1634.00194540709
 20
859.2953320234492
 30
0.0
 11
1633.994916271101
 21
859.2953320234492
 31
0.0
  0
LINE
  5
118B
330
1F
100
AcDbEntity
  8
SANINDUSA
100
AcDbLine
 10
1634.186600680528
 20
859.3467797228477
 30
0.0
 11
1634.237197421646
 21
859.4271136917624
 31
0.0
  0
LINE
  5
118D
330
1F
100
AcDbEntity
  8
SANINDUSA
100
AcDbLine
 10
1634.158710716602
 20
859.3444490184735
 30
0.0
 11
1634.158710716602
 21
859.3344490184735
 31
0.0
  0
LINE
  5
118E
330
1F
100
AcDbEntity
  8
SANINDUSA
100
AcDbLine
 10
1634.185416536568
 20
859.3454490184734
 30
0.0
 11
1634.159710716602
 21
859.3454490184734
 31
0.0
  0
LWPOLYLINE
  5
118F
330
1F
100
AcDbEntity
  8
SANINDUSA
100
AcDbPolyline
 90
        4
 70
   128
 43
0.0
 10
1634.186600680528
 20
859.3467797228477
 10
1634.186255236371
 20
859.3462928326031
 10
1634.185858786903
 20
859.3458473149469
 10
1634.185416536568
 20
859.3454490184734
  0
LINE
  5
1191
330
1F
100
AcDbEntity
  8
SANINDUSA
100
AcDbLine
 10
1634.248668280395
 20
859.4244490184735
 30
0.0
 11
1634.248668280395
 21
859.3394490184735
 31
0.0
  0
LINE
  5
1195
330
1F
100
AcDbEntity
  8
SANINDUSA
100
AcDbLine
 10
1634.241428203637
 20
859.4294490184735
 30
0.0
 11
1634.243668280395
 21
859.4294490184735
 31
0.0
  0
ARC
  5
1196
330
1F
100
AcDbEntity
  8
SANINDUSA
100
AcDbCircle
 10
1634.243668280395
 20
859.4244490184735
 30
0.0
 40
0.005
100
AcDbArc
 50
0.0
 51
90.0
  0
ARC
  5
1197
330
1F
100
AcDbEntity
  8
SANINDUSA
100
AcDbCircle
 10
1634.241428203637
 20
859.4244490184735
 30
0.0
 40
0.0050000000000001
100
AcDbArc
 50
90.0
 51
147.7960468850215
  0
LINE
  5
1199
330
1F
100
AcDbEntity
  8
SANINDUSA
100
AcDbLine
 10
1633.808668280394
 20
859.3704353212839
 30
0.0
 11
1633.808668280394
 21
859.4164490184734
 31
0.0
  0
LINE
  5
119A
330
1F
100
AcDbEntity
  8
SANINDUSA
100
AcDbLine
 10
1633.81819341628
 20
859.3704876572401
 30
0.0
 11
1633.820433660207
 21
859.4132340578171
 31
0.0
  0
ARC
  5
119B
330
1F
100
AcDbEntity
  8
SANINDUSA
100
AcDbCircle
 10
1633.835413103228
 20
859.4124490184734
 30
0.0
 40
0.015
100
AcDbArc
 50
165.5224878101442
 51
176.999999996727
  0
ARC
  5
119C
330
1F
100
AcDbEntity
  8
SANINDUSA
100
AcDbCircle
 10
1633.819921169844
 20
859.4164490184734
 30
0.0
 40
0.001
100
AcDbArc
 50
345.5224878101442
 51
90.0
  0
LINE
  5
119D
330
1F
100
AcDbEntity
  8
SANINDUSA
100
AcDbLine
 10
1633.809668280395
 20
859.4174490184734
 30
0.0
 11
1633.819921169844
 21
859.4174490184734
 31
0.0
  0
LINE
  5
119E
330
1F
100
AcDbEntity
  8
SANINDUSA
100
AcDbLine
 10
1633.81819341628
 20
859.3704876572401
 30
0.0
 11
1633.817041161992
 21
859.3485013356691
 31
0.0
  0
LINE
  5
119F
330
1F
100
AcDbEntity
  8
SANINDUSA
100
AcDbLine
 10
1633.808668280394
 20
859.3704353212839
 30
0.0
 11
1633.808668280394
 21
859.3484489809519
 31
0.0
  0
LINE
  5
11A0
330
1F
100
AcDbEntity
  8
SANINDUSA
100
AcDbLine
 10
1633.816878454015
 20
859.3453966825173
 30
0.0
 11
1633.817041161992
 21
859.3485013356691
 31
0.0
  0
LINE
  5
11A1
330
1F
100
AcDbEntity
  8
SANINDUSA
100
AcDbLine
 10
1633.808668280394
 20
859.3454490184734
 30
0.0
 11
1633.808668280394
 21
859.3484489809519
 31
0.0
  0
ARC
  5
11A2
330
1F
100
AcDbEntity
  8
SANINDUSA
100
AcDbCircle
 10
1633.809668280395
 20
859.4164490184734
 30
0.0
 40
0.001
100
AcDbArc
 50
90.0
 51
180.0
  0
ARC
  5
11A3
330
1F
100
AcDbEntity
  8
SANINDUSA
100
AcDbCircle
 10
1633.799668280395
 20
859.4284490184733
 30
0.0
 40
0.001
100
AcDbArc
 50
90.0
 51
180.0
  0
LINE
  5
11A4
330
1F
100
AcDbEntity
  8
SANINDUSA
100
AcDbLine
 10
1633.928473811882
 20
859.395116454548
 30
0.0
 11
1633.967019639458
 21
859.3339160838157
 31
0.0
  0
ARC
  5
11A5
330
1F
100
AcDbEntity
  8
SANINDUSA
100
AcDbCircle
 10
1633.927627655483
 20
859.3945835198901
 30
0.0
 40
0.001
100
AcDbArc
 50
32.20395311497848
 51
190.8510147709052
  0
ARC
  5
11A6
330
1F
100
AcDbEntity
  8
SANINDUSA
100
AcDbCircle
 10
1633.943010513929
 20
859.3143320234492
 30
0.0
 40
0.001
100
AcDbArc
 50
190.8510147709052
 51
270.0
  0
ARC
  5
11A7
330
1F
100
AcDbEntity
  8
SANINDUSA
100
AcDbCircle
 10
1633.948921260186
 20
859.3123320234493
 30
0.0
 40
0.001
100
AcDbArc
 50
0.0
 51
90.0
  0
ARC
  5
11A8
330
1F
100
AcDbEntity
  8
SANINDUSA
100
AcDbCircle
 10
1633.948921260186
 20
859.2963320234492
 30
0.0
 40
0.001
100
AcDbArc
 50
270.0
 51
0.0
  0
ARC
  5
11A9
330
1F
100
AcDbEntity
  8
SANINDUSA
100
AcDbCircle
 10
1633.994916271101
 20
859.3123320234493
 30
0.0
 40
0.001
100
AcDbArc
 50
90.0
 51
180.0
  0
ARC
  5
11AA
330
1F
100
AcDbEntity
  8
SANINDUSA
100
AcDbCircle
 10
1633.994916271101
 20
859.2963320234492
 30
0.0
 40
0.001
100
AcDbArc
 50
180.0
 51
270.0
  0
ARC
  5
11AB
330
1F
100
AcDbEntity
  8
SANINDUSA
100
AcDbCircle
 10
1633.997668968854
 20
859.3444490184735
 30
0.0
 40
0.001
100
AcDbArc
 50
0.0
 51
90.0
  0
ARC
  5
11AC
330
1F
100
AcDbEntity
  8
SANINDUSA
100
AcDbCircle
 10
1634.159710716602
 20
859.3344490184735
 30
0.0
 40
0.001
100
AcDbArc
 50
180.0
 51
270.0
  0
ARC
  5
11AD
330
1F
100
AcDbEntity
  8
SANINDUSA
100
AcDbCircle
 10
1634.159710716602
 20
859.3444490184735
 30
0.0
 40
0.001
100
AcDbArc
 50
90.0
 51
180.0
  0
LINE
  5
11AE
330
1F
100
AcDbEntity
  8
SANINDUSA
100
AcDbLine
 10
1634.238668280395
 20
859.4072208593082
 30
0.0
 11
1634.238668280395
 21
859.3454490184734
 31
0.0
  0
LINE
  5
11AF
330
1F
100
AcDbEntity
  8
SANINDUSA
100
AcDbLine
 10
1634.205837885463
 20
859.3585591857721
 30
0.0
 11
1634.236822123996
 21
859.4077537939661
 31
0.0
  0
ARC
  5
11B0
330
1F
100
AcDbEntity
  8
SANINDUSA
100
AcDbCircle
 10
1634.237668280395
 20
859.4072208593082
 30
0.0
 40
0.001
100
AcDbArc
 50
0.0
 51
147.7960468850215
  0
LINE
  5
11B9
330
1F
100
AcDbEntity
  8
SANINDUSA
100
AcDbLine
 10
1633.920139139144
 20
859.4271136917624
 30
0.0
 11
1633.970735880262
 21
859.3467797228477
 31
0.0
  0
LINE
  5
11D0
330
1F
100
AcDbEntity
  8
SANINDUSA
100
AcDbLine
 10
1634.243668280395
 20
859.3344490184735
 30
0.0
 11
1634.187883283227
 21
859.3344490184735
 31
0.0
  0
ARC
  5
11D1
330
1F
100
AcDbEntity
  8
SANINDUSA
100
AcDbCircle
 10
1634.243668280395
 20
859.3394490184735
 30
0.0
 40
0.005
100
AcDbArc
 50
270.0
 51
0.0
  0
LINE
  5
11D2
330
1F
100
AcDbEntity
  8
SANINDUSA
100
AcDbLine
 10
1634.237668280395
 20
859.3444490184735
 30
0.0
 11
1634.222027563743
 21
859.3444490184735
 31
0.0
  0
ARC
  5
11D3
330
1F
100
AcDbEntity
  8
SANINDUSA
100
AcDbCircle
 10
1634.237668280395
 20
859.3454490184734
 30
0.0
 40
0.001
100
AcDbArc
 50
270.0
 51
0.0
  0
LINE
  5
11DE
330
1F
100
AcDbEntity
  8
SANINDUSA
100
AcDbLine
 10
1634.003941676687
 20
859.2972099263702
 30
0.0
 11
1634.004028976528
 21
859.2986372661469
 31
0.0
  0
ARC
  5
11DF
330
1F
100
AcDbEntity
  8
SANINDUSA
100
AcDbCircle
 10
1634.00194540709
 20
859.2973320234492
 30
0.0
 40
0.002
100
AcDbArc
 50
270.0
 51
356.4999999976704
  0
ARC
  5
11E0
330
1F
100
AcDbEntity
  8
SANINDUSA
100
AcDbCircle
 10
1634.009019650519
 20
859.2983320234493
 30
0.0
 40
0.005
100
AcDbArc
 50
90.0
 51
176.4999999976704
  0
ARC
  5
11E1
330
1F
100
AcDbEntity
  8
SANINDUSA
100
AcDbCircle
 10
1633.941892124197
 20
859.2973320234492
 30
0.0
 40
0.002
100
AcDbArc
 50
183.5000000023296
 51
270.0
  0
LINE
  5
11E2
330
1F
100
AcDbEntity
  8
SANINDUSA
100
AcDbLine
 10
1633.9398958546
 20
859.2972099263702
 30
0.0
 11
1633.939774992365
 21
859.2991860064579
 31
0.0
  0
ARC
  5
11E3
330
1F
100
AcDbEntity
  8
SANINDUSA
100
AcDbCircle
 10
1633.934784318373
 20
859.2988807637603
 30
0.0
 40
0.005
100
AcDbArc
 50
3.500000002329602
 51
70.93102685533714
  0
ARC
  5
11F8
330
1F
100
AcDbEntity
  8
SANINDUSA
100
AcDbCircle
 10
1633.821573611881
 20
859.3394490184735
 30
0.0
 40
0.005
100
AcDbArc
 50
270.0
 51
356.999999996727
  0
LINE
  5
11F9
330
1F
100
AcDbEntity
  8
SANINDUSA
100
AcDbLine
 10
1633.821573611881
 20
859.3344490184735
 30
0.0
 11
1633.853537649782
 21
859.3344490184735
 31
0.0
  0
LINE
  5
11FA
330
1F
100
AcDbEntity
  8
SANINDUSA
100
AcDbLine
 10
1633.853537649782
 20
859.3344490184735
 30
0.0
 11
1633.927954164837
 21
859.3344490184735
 31
0.0
  0
LINE
  5
11FB
330
1F
100
AcDbEntity
  8
SANINDUSA
100
AcDbLine
 10
1633.798668280395
 20
859.3354490184735
 30
0.0
 11
1633.798668280395
 21
859.3484489809519
 31
0.0
  0
ARC
  5
11FC
330
1F
100
AcDbEntity
  8
SANINDUSA
100
AcDbCircle
 10
1633.799668280395
 20
859.3354490184735
 30
0.0
 40
0.001
100
AcDbArc
 50
180.0
 51
270.0
  0
LINE
  5
120D
330
1F
100
AcDbEntity
  8
SANINDUSA
100
AcDbLine
 10
1633.81587982448
 20
859.3444490184735
 30
0.0
 11
1633.809668280395
 21
859.3444490184735
 31
0.0
  0
ARC
  5
120E
330
1F
100
AcDbEntity
  8
SANINDUSA
100
AcDbCircle
 10
1633.809668280395
 20
859.3454490184734
 30
0.0
 40
0.001
100
AcDbArc
 50
180.0
 51
270.0
  0
ARC
  5
120F
330
1F
100
AcDbEntity
  8
SANINDUSA
100
AcDbCircle
 10
1633.81587982448
 20
859.3454490184734
 30
0.0
 40
0.001
100
AcDbArc
 50
270.0
 51
356.999999996727
  0
LINE
  5
1244
330
1F
100
AcDbEntity
  8
SANINDUSA
100
AcDbLine
 10
1634.030099905241
 20
859.3033356669295
 30
0.0
 11
1634.168663136514
 21
859.3104883971641
 31
0.0
  0
LINE
  5
1245
330
1F
100
AcDbEntity
  8
SANINDUSA
100
AcDbLine
 10
1634.185483770907
 20
859.3454490184734
 30
0.0
 11
1634.159710716602
 21
859.3454490184734
 31
0.0
  0
LINE
  5
1246
330
1F
100
AcDbEntity
  8
SANINDUSA
100
AcDbLine
 10
1634.190646063631
 20
859.3344490184735
 30
0.0
 11
1634.18319214078
 21
859.3344490184735
 31
0.0
  0
ARC
  5
1247
330
1F
100
AcDbEntity
  8
SANINDUSA
100
AcDbCircle
 10
1634.181888940038
 20
859.349594060256
 30
0.0
 40
0.0054867276543084
100
AcDbArc
 50
310.9338064340773
 51
327.8164479975183
  0
ARC
  5
1248
330
1F
100
AcDbEntity
  8
SANINDUSA
100
AcDbCircle
 10
1634.243668280395
 20
859.3394490184735
 30
0.0
 40
0.005
100
AcDbArc
 50
270.0
 51
0.0
  0
LINE
  5
1249
330
1F
100
AcDbEntity
  8
SANINDUSA
100
AcDbLine
 10
1634.029713179087
 20
859.3133290184734
 30
0.0
 11
1634.163962829297
 21
859.3202590786576
 31
0.0
  0
ARC
  5
124B
330
1F
100
AcDbEntity
  8
SANINDUSA
100
AcDbCircle
 10
1634.168405376239
 20
859.315481748708
 30
0.0
 40
0.0049999999999999
100
AcDbArc
 50
272.9550250414214
 51
342.8153894953542
  0
LINE
  5
124C
330
1F
100
AcDbEntity
  8
SANINDUSA
100
AcDbLine
 10
1634.192116397201
 20
859.3367880513415
 30
0.0
 11
1634.197083486875
 21
859.3446897861879
 31
0.0
  0
LINE
  5
124D
330
1F
100
AcDbEntity
  8
SANINDUSA
100
AcDbLine
 10
1634.212278414535
 20
859.3384094600194
 30
0.0
 11
1634.211288131052
 21
859.34306837751
 31
0.0
  0
LINE
  5
124E
330
1F
100
AcDbEntity
  8
SANINDUSA
100
AcDbLine
 10
1634.243668280395
 20
859.3344490184735
 30
0.0
 11
1634.217169152539
 21
859.3344490184735
 31
0.0
  0
ARC
  5
124F
330
1F
100
AcDbEntity
  8
SANINDUSA
100
AcDbCircle
 10
1634.217169152539
 20
859.3394490184735
 30
0.0
 40
0.005
100
AcDbArc
 50
192.0000000003634
 51
270.0
  0
ARC
  5
1250
330
1F
100
AcDbEntity
  8
SANINDUSA
100
AcDbCircle
 10
1634.243668280395
 20
859.3394490184735
 30
0.0
 40
0.005
100
AcDbArc
 50
270.0
 51
0.0
  0
ARC
  5
1251
330
1F
100
AcDbEntity
  8
SANINDUSA
100
AcDbCircle
 10
1634.206397393048
 20
859.3420288190557
 30
0.0
 40
0.0050000000000002
100
AcDbArc
 50
12.00000000036341
 51
90.0
  0
ARC
  5
1252
330
1F
100
AcDbEntity
  8
SANINDUSA
100
AcDbCircle
 10
1634.20131660085
 20
859.3420288190557
 30
0.0
 40
0.005
100
AcDbArc
 50
90.0
 51
147.8462240458288
  0
LINE
  5
1253
330
1F
100
AcDbEntity
  8
SANINDUSA
100
AcDbLine
 10
1634.20131660085
 20
859.3470288190557
 30
0.0
 11
1634.206397393048
 21
859.3470288190557
 31
0.0
  0
ARC
  5
1254
330
1F
100
AcDbEntity
  8
SANINDUSA
100
AcDbCircle
 10
1634.181888940042
 20
859.3495940602529
 30
0.0
 40
0.0054867276494507
100
AcDbArc
 50
310.9338064298096
 51
327.8164479975183
  0
LINE
  5
1255
330
1F
100
AcDbEntity
  8
SANINDUSA
100
AcDbLine
 10
1634.237668280395
 20
859.3444490184735
 30
0.0
 11
1634.222027563743
 21
859.3444490184735
 31
0.0
  0
ARC
  5
1256
330
1F
100
AcDbEntity
  8
SANINDUSA
100
AcDbCircle
 10
1634.206397393048
 20
859.3420288190557
 30
0.0
 40
0.0150000000000002
100
AcDbArc
 50
12.34293389078099
 51
88.97345962818926
  0
ARC
  5
1257
330
1F
100
AcDbEntity
  8
SANINDUSA
100
AcDbCircle
 10
1634.237668280395
 20
859.3454490184734
 30
0.0
 40
0.001
100
AcDbArc
 50
270.0
 51
0.0
  0
ARC
  5
1258
330
1F
100
AcDbEntity
  8
SANINDUSA
100
AcDbCircle
 10
1634.222027563743
 20
859.3454490184734
 30
0.0
 40
0.001
100
AcDbArc
 50
192.342933890781
 51
270.0
  0
ARC
  5
1259
330
1F
100
AcDbEntity
  8
SANINDUSA
100
AcDbCircle
 10
1634.206684041862
 20
859.3580262511142
 30
0.0
 40
0.001
100
AcDbArc
 50
147.7960468850215
 51
268.9734596281892
  0
LINE
  5
125A
330
1F
100
AcDbEntity
  8
SANINDUSA
100
AcDbLine
 10
1634.168327617895
 20
859.3321535670193
 30
0.0
 11
1634.164866634996
 21
859.3209622975123
 31
0.0
  0
ARC
  5
125B
330
1F
100
AcDbEntity
  8
SANINDUSA
100
AcDbCircle
 10
1634.163911277242
 20
859.3212577489664
 30
0.0
 40
0.001
100
AcDbArc
 50
272.9550250414214
 51
342.8153894953542
  0
LINE
  5
125C
330
1F
100
AcDbEntity
  8
SANINDUSA
100
AcDbLine
 10
1634.17841535201
 20
859.330926275744
 30
0.0
 11
1634.17318216501
 21
859.3140044914374
 31
0.0
  0
LINE
  5
125D
330
1F
100
AcDbEntity
  8
SANINDUSA
100
AcDbLine
 10
1634.159710716602
 20
859.3334490184735
 30
0.0
 11
1634.16737226014
 21
859.3334490184735
 31
0.0
  0
LINE
  5
125E
330
1F
100
AcDbEntity
  8
SANINDUSA
100
AcDbLine
 10
1634.160563395547
 20
859.3334490184735
 30
0.0
 11
1634.16737226014
 21
859.3334490184735
 31
0.0
  0
LINE
  5
1260
330
1F
100
AcDbEntity
  8
SANINDUSA
100
AcDbLine
 10
1633.997668968854
 20
859.3334490184735
 30
0.0
 11
1634.159710716602
 21
859.3334490184735
 31
0.0
  0
ARC
  5
1262
330
1F
100
AcDbEntity
  8
SANINDUSA
100
AcDbCircle
 10
1633.967865795856
 20
859.3344490184735
 30
0.0
 40
0.001
100
AcDbArc
 50
212.2039531149785
 51
270.0
  0
ARC
  5
1263
330
1F
100
AcDbEntity
  8
SANINDUSA
100
AcDbCircle
 10
1633.997668968854
 20
859.3344490184735
 30
0.0
 40
0.001
100
AcDbArc
 50
270.0
 51
0.0
  0
ARC
  5
1264
330
1F
100
AcDbEntity
  8
SANINDUSA
100
AcDbCircle
 10
1634.18319214078
 20
859.3294490184735
 30
0.0
 40
0.005
100
AcDbArc
 50
90.0
 51
162.8153894953541
  0
ARC
  5
1265
330
1F
100
AcDbEntity
  8
SANINDUSA
100
AcDbCircle
 10
1634.187883283227
 20
859.3394490184735
 30
0.0
 40
0.005
100
AcDbArc
 50
270.0
 51
327.8462240458289
  0
ARC
  5
1266
330
1F
100
AcDbEntity
  8
SANINDUSA
100
AcDbCircle
 10
1634.16737226014
 20
859.3324490184736
 30
0.0
 40
0.001
100
AcDbArc
 50
342.8153894953542
 51
90.0
  0
LINE
  5
1610
330
1F
100
AcDbEntity
  8
SANINDUSA
100
AcDbLine
 10
1633.648876618456
 20
859.4294367407872
 30
0.0
 11
1633.203876618456
 21
859.4294367407872
 31
0.0
  0
LINE
  5
1611
330
1F
100
AcDbEntity
  8
SANINDUSA
100
AcDbLine
 10
1633.203876618456
 20
859.3344367407873
 30
0.0
 11
1633.648876618456
 21
859.3344367407873
 31
0.0
  0
LINE
  5
1612
330
1F
100
AcDbEntity
  8
SANINDUSA
100
AcDbLine
 10
1633.653876618456
 20
859.3394367407872
 30
0.0
 11
1633.653876618456
 21
859.4244367407872
 31
0.0
  0
ARC
  5
1613
330
1F
100
AcDbEntity
  8
SANINDUSA
100
AcDbCircle
 10
1633.648876618456
 20
859.3394367407872
 30
0.0
 40
0.005
100
AcDbArc
 50
270.0
 51
0.000000000000007
  0
ARC
  5
1614
330
1F
100
AcDbEntity
  8
SANINDUSA
100
AcDbCircle
 10
1633.648876618456
 20
859.4244367407872
 30
0.0
 40
0.005
100
AcDbArc
 50
0.000000000000007
 51
90.0
  0
LINE
  5
1615
330
1F
100
AcDbEntity
  8
SANINDUSA
100
AcDbLine
 10
1633.414041245136
 20
859.303319745763
 30
0.0
 11
1633.435237661526
 21
859.303319745763
 31
0.0
  0
LINE
  5
1616
330
1F
100
AcDbEntity
  8
SANINDUSA
100
AcDbLine
 10
1633.333162502899
 20
859.3344367407873
 30
0.0
 11
1633.338349117741
 21
859.3073784665385
 31
0.0
  0
LINE
  5
1617
330
1F
100
AcDbEntity
  8
SANINDUSA
100
AcDbLine
 10
1633.347212962274
 20
859.295319745763
 30
0.0
 11
1633.407041245136
 21
859.295319745763
 31
0.0
  0
ARC
  5
1618
330
1F
100
AcDbEntity
  8
SANINDUSA
100
AcDbCircle
 10
1633.414041245136
 20
859.298319745763
 30
0.0
 40
0.005
100
AcDbArc
 50
90.0
 51
180.0
  0
ARC
  5
1619
330
1F
100
AcDbEntity
  8
SANINDUSA
100
AcDbCircle
 10
1633.407041245136
 20
859.2973197457631
 30
0.0
 40
0.0020000000000002
100
AcDbArc
 50
270.0
 51
0.000000000000007
  0
LINE
  5
161A
330
1F
100
AcDbEntity
  8
SANINDUSA
100
AcDbLine
 10
1633.409041245136
 20
859.298319745763
 30
0.0
 11
1633.409041245136
 21
859.2973197457631
 31
0.0
  0
LINE
  5
161B
330
1F
100
AcDbEntity
  8
SANINDUSA
100
AcDbLine
 10
1633.342641956425
 20
859.303319745763
 30
0.0
 11
1633.414041245136
 21
859.303319745763
 31
0.0
  0
ARC
  5
161C
330
1F
100
AcDbEntity
  8
SANINDUSA
100
AcDbCircle
 10
1633.340236354342
 20
859.2989593636778
 30
0.0
 40
0.0049799451110905
100
AcDbArc
 50
357.9023194014774
 51
62.35522041039846
  0
ARC
  5
161D
330
1F
100
AcDbEntity
  8
SANINDUSA
100
AcDbCircle
 10
1633.347212962274
 20
859.2973197457631
 30
0.0
 40
0.0020000000000002
100
AcDbArc
 50
180.0
 51
270.0
  0
LINE
  5
161E
330
1F
100
AcDbEntity
  8
SANINDUSA
100
AcDbLine
 10
1633.345212962274
 20
859.2973197457631
 30
0.0
 11
1633.345212962274
 21
859.2987770814785
 31
0.0
  0
ARC
  5
161F
330
1F
100
AcDbEntity
  8
SANINDUSA
100
AcDbCircle
 10
1633.34325971785
 20
859.308319745763
 30
0.0
 40
0.005
100
AcDbArc
 50
190.8510147709036
 51
261.8048446867032
  0
LINE
  5
1620
330
1F
100
AcDbEntity
  8
SANINDUSA
100
AcDbLine
 10
1633.203876618456
 20
859.4244367407872
 30
0.0
 11
1633.203876618456
 21
859.3344367407873
 31
0.0
  0
LINE
  5
1621
330
1F
100
AcDbEntity
  8
SANINDUSA
100
AcDbLine
 10
1633.203876618456
 20
859.3544367407872
 30
0.0
 11
1633.203876618456
 21
859.4244367407872
 31
0.0
  0
LINE
  5
1622
330
1F
100
AcDbEntity
  8
SANINDUSA
100
AcDbLine
 10
1633.203876618456
 20
859.4294367407872
 30
0.0
 11
1633.203876618456
 21
859.4244367407872
 31
0.0
  0
ARC
  5
1623
330
1F
100
AcDbEntity
  8
SANINDUSA
100
AcDbCircle
 10
1633.573613714301
 20
859.3154694710218
 30
0.0
 40
0.0049999999999999
100
AcDbArc
 50
272.9550250414153
 51
342.815389495353
  0
LINE
  5
1624
330
1F
100
AcDbEntity
  8
SANINDUSA
100
AcDbLine
 10
1633.58393294747
 20
859.3319139980579
 30
0.0
 11
1633.578390503071
 21
859.3139922137511
 31
0.0
  0
LINE
  5
1625
330
1F
100
AcDbEntity
  8
SANINDUSA
100
AcDbLine
 10
1633.435237661526
 20
859.303319745763
 30
0.0
 11
1633.573871474575
 21
859.3104761194778
 31
0.0
  0
ARC
  5
1626
330
1F
100
AcDbEntity
  8
SANINDUSA
100
AcDbCircle
 10
1633.588709736241
 20
859.3304367407872
 30
0.0
 40
0.005
100
AcDbArc
 50
126.8698976484453
 51
162.815389495353
  0
ENDSEC
  0
SECTION
  2
OBJECTS
  0
DICTIONARY
  5
C
330
0
100
AcDbDictionary
281
     1
  3
ACAD_COLOR
350
BA9
  3
ACAD_GROUP
350
D
  3
ACAD_LAYOUT
350
1A
  3
ACAD_MATERIAL
350
BA8
  3
ACAD_MLINESTYLE
350
17
  3
ACAD_PLOTSETTINGS
350
19
  3
ACAD_PLOTSTYLENAME
350
E
  3
ACAD_TABLESTYLE
350
BAA
  3
ACDBHEADERROUNDTRIPXREC
350
1636
  3
AcDbVariableDictionary
350
3D
  3
ASE_INDEX_DICTIONARY
350
B91
  0
DICTIONARY
  5
BA9
102
{ACAD_REACTORS
330
C
102
}
330
C
100
AcDbDictionary
281
     1
  0
DICTIONARY
  5
D
102
{ACAD_REACTORS
330
C
102
}
330
C
100
AcDbDictionary
281
     1
  0
DICTIONARY
  5
1A
102
{ACAD_REACTORS
330
C
102
}
330
C
100
AcDbDictionary
281
     1
  3
Layout1
350
1E
  3
Layout2
350
26
  3
Model
350
22
  0
DICTIONARY
  5
BA8
102
{ACAD_REACTORS
330
C
102
}
330
C
100
AcDbDictionary
281
     1
  0
DICTIONARY
  5
17
102
{ACAD_REACTORS
330
C
102
}
330
C
100
AcDbDictionary
281
     1
  3
Standard
350
18
  0
DICTIONARY
  5
19
102
{ACAD_REACTORS
330
C
102
}
330
C
100
AcDbDictionary
281
     1
  0
ACDBDICTIONARYWDFLT
  5
E
102
{ACAD_REACTORS
330
C
102
}
330
C
100
AcDbDictionary
281
     1
  3
Normal
350
F
100
AcDbDictionaryWithDefault
340
F
  0
DICTIONARY
  5
BAA
102
{ACAD_REACTORS
330
C
102
}
330
C
100
AcDbDictionary
281
     1
  3
Standard
350
BAB
  0
DICTIONARY
  5
1636
102
{ACAD_REACTORS
330
C
102
}
330
C
100
AcDbDictionary
281
     1
  0
DICTIONARY
  5
3D
102
{ACAD_REACTORS
330
C
102
}
330
C
100
AcDbDictionary
281
     1
  3
CTABLESTYLE
350
BB1
  3
DIMASSOC
350
3F
  3
HIDETEXT
350
3E
  3
PROJECTNAME
350
162F
  0
DICTIONARY
  5
B91
102
{ACAD_REACTORS
330
C
102
}
330
C
100
AcDbDictionary
281
     1
  3
ASEBlockHierarchyIndexRecord
350
B92
1001
DCO15
1040
1485069952.593
  0
LAYOUT
  5
1E
102
{ACAD_XDICTIONARY
360
1637
102
}
102
{ACAD_REACTORS
330
1A
102
}
330
1A
100
AcDbPlotSettings
  1

  2
Ploter HP500
  4

  6

 40
0.0
 41
0.0
 42
0.0
 43
0.0
 44
0.0
 45
0.0
 46
0.0
 47
0.0
 48
0.0
 49
0.0
140
0.0
141
0.0
142
1.0
143
1.0
 70
   688
 72
     0
 73
     0
 74
     5
  7
monochrome.ctb
 75
    16
147
1.0
148
0.0
149
0.0
100
AcDbLayout
  1
Layout1
 70
     1
 71
     1
 10
0.0
 20
0.0
 11
420.0
 21
297.0
 12
0.0
 22
0.0
 32
0.0
 14
1.000000000000000E+20
 24
1.000000000000000E+20
 34
1.000000000000000E+20
 15
-1.000000000000000E+20
 25
-1.000000000000000E+20
 35
-1.000000000000000E+20
146
0.0
 13
0.0
 23
0.0
 33
0.0
 16
1.0
 26
0.0
 36
0.0
 17
0.0
 27
1.0
 37
0.0
 76
     0
330
1B
  0
LAYOUT
  5
26
102
{ACAD_XDICTIONARY
360
163B
102
}
102
{ACAD_REACTORS
330
1A
102
}
330
1A
100
AcDbPlotSettings
  1

  2
Ploter HP500
  4

  6

 40
0.0
 41
0.0
 42
0.0
 43
0.0
 44
0.0
 45
0.0
 46
0.0
 47
0.0
 48
0.0
 49
0.0
140
0.0
141
0.0
142
1.0
143
1.0
 70
   688
 72
     0
 73
     0
 74
     5
  7
monochrome.ctb
 75
    16
147
1.0
148
0.0
149
0.0
100
AcDbLayout
  1
Layout2
 70
     1
 71
     2
 10
0.0
 20
0.0
 11
12.0
 21
9.0
 12
0.0
 22
0.0
 32
0.0
 14
0.0
 24
0.0
 34
0.0
 15
0.0
 25
0.0
 35
0.0
146
0.0
 13
0.0
 23
0.0
 33
0.0
 16
1.0
 26
0.0
 36
0.0
 17
0.0
 27
1.0
 37
0.0
 76
     0
330
23
  0
LAYOUT
  5
22
102
{ACAD_XDICTIONARY
360
1639
102
}
102
{ACAD_REACTORS
330
1A
102
}
330
1A
100
AcDbPlotSettings
  1

  2
Ploter HP500
  4
User268
  6

 40
4.995333194732666
 41
16.97565841674804
 42
4.995330810546875
 43
16.97567749023437
 44
209.9733276367187
 45
296.9259948730469
 46
0.0
 47
0.0
 48
0.0
 49
0.0
140
0.0
141
0.0
142
1.0
143
1.0
 70
 11952
 72
     1
 73
     1
 74
     0
  7
sanindusa.ctb
 75
     0
147
1.0
148
-427.5957866592534
149
7.362384574453926
100
AcDbLayout
  1
Model
 70
     1
 71
     0
 10
0.0
 20
0.0
 11
12.0
 21
9.0
 12
0.0
 22
0.0
 32
0.0
 14
0.0
 24
0.0
 34
0.0
 15
0.0
 25
0.0
 35
0.0
146
0.0
 13
0.0
 23
0.0
 33
0.0
 16
1.0
 26
0.0
 36
0.0
 17
0.0
 27
1.0
 37
0.0
 76
     0
330
1F
  0
MLINESTYLE
  5
18
102
{ACAD_REACTORS
330
17
102
}
330
17
100
AcDbMlineStyle
  2
STANDARD
 70
     0
  3

 62
   256
 51
90.0
 52
90.0
 71
     2
 49
0.5
 62
   256
  6
BYLAYER
 49
-0.5
 62
   256
  6
BYLAYER
  0
ACDBPLACEHOLDER
  5
F
102
{ACAD_REACTORS
330
E
102
}
330
E
  0
TABLESTYLE
  5
BAB
102
{ACAD_REACTORS
330
BAA
102
}
330
BAA
100
AcDbTableStyle
  3
Standard
 70
     0
 71
     0
 40
1.5
 41
1.5
280
     0
281
     0
  7
Standard
140
4.5
170
     2
 62
     0
 63
     7
283
     0
274
    -2
284
     1
 64
     0
275
    -2
285
     1
 65
     0
276
    -2
286
     1
 66
     0
277
    -2
287
     1
 67
     0
278
    -2
288
     1
 68
     0
279
    -2
289
     1
 69
     0
  7
Standard
140
6.0
170
     5
 62
     0
 63
     7
283
     0
274
    -2
284
     1
 64
     0
275
    -2
285
     1
 65
     0
276
    -2
286
     1
 66
     0
277
    -2
287
     1
 67
     0
278
    -2
288
     1
 68
     0
279
    -2
289
     1
 69
     0
  7
Standard
140
4.5
170
     5
 62
     0
 63
     7
283
     0
274
    -2
284
     1
 64
     0
275
    -2
285
     1
 65
     0
276
    -2
286
     1
 66
     0
277
    -2
287
     1
 67
     0
278
    -2
288
     1
 68
     0
279
    -2
289
     1
 69
     0
  0
DICTIONARYVAR
  5
BB1
102
{ACAD_REACTORS
330
3D
102
}
330
3D
100
DictionaryVariables
280
     0
  1
STANDARD
  0
DICTIONARYVAR
  5
3F
102
{ACAD_REACTORS
330
3D
102
}
330
3D
100
DictionaryVariables
280
     0
  1
2
  0
DICTIONARYVAR
  5
3E
102
{ACAD_REACTORS
330
3D
102
}
330
3D
100
DictionaryVariables
280
     0
  1
1
  0
DICTIONARYVAR
  5
162F
102
{ACAD_REACTORS
330
3D
102
}
330
3D
100
DictionaryVariables
280
     0
  1

  0
XRECORD
  5
B92
102
{ACAD_REACTORS
330
B91
102
}
330
B91
100
AcDbXrecord
280
     1
  0
DICTIONARY
  5
1637
330
1E
100
AcDbDictionary
280
     1
281
     1
  3
ACAD_XREC_ROUNDTRIP
360
1638
  0
DICTIONARY
  5
163B
330
26
100
AcDbDictionary
280
     1
281
     1
  3
ACAD_XREC_ROUNDTRIP
360
163C
  0
DICTIONARY
  5
1639
330
22
100
AcDbDictionary
280
     1
281
     1
  3
ACAD_XREC_ROUNDTRIP
360
163A
  0
XRECORD
  5
1638
102
{ACAD_REACTORS
330
1637
102
}
330
1637
100
AcDbXrecord
280
     1
102
SHADEPLOT
 70
     0
102
SHADEPLOTRESLEVEL
 70
     2
102
SHADEPLOTCUSTOMDPI
 70
   300
  0
XRECORD
  5
163C
102
{ACAD_REACTORS
330
163B
102
}
330
163B
100
AcDbXrecord
280
     1
102
SHADEPLOT
 70
     0
102
SHADEPLOTRESLEVEL
 70
     2
102
SHADEPLOTCUSTOMDPI
 70
   300
  0
XRECORD
  5
163A
102
{ACAD_REACTORS
330
1639
102
}
330
1639
100
AcDbXrecord
280
     1
102
SHADEPLOT
 70
     0
102
SHADEPLOTRESLEVEL
 70
     2
102
SHADEPLOTCUSTOMDPI
 70
   300
  0
ENDSEC
  0
EOF
